Tablatura para Guitarra de Música de Películas: Piratas del Caribe
Conexión · Inscripción
Letras y Acordes
Pantalla Completa
Imprimir
Versión Texto
Añadir Favorito
Otras Versiones

Mostrar Diagramas
Desfile Automático
Manipular Acordes
Formato del Texto

Música de Películas
Piratas del Caribe(TAB)
calidad:
mdpe1101
AUTOR: Mariano
ALBUM: desconocido
Enviado por Cesar
Hace mucho tiempo no dejo nada en la cuerda, pero aqui regreso con este
espectacular sencillo.

Disfrutenla!!!

e|----------------------------------------------------------------------|
B|----------------------------------------------------------------------|
G|------------------------------------------------------------------7---|
D|------------------------------------------------------------------7---|
A|-5----5-5----5-5----5-5-5-5--5----5-5----5-5----5-5-5-5--5------------|
E|----------------------------------------------------------------------|



e|----------------------------------------------------------------------|
B|-------------------------5---6-6-----6--8---5-5-----------------------|
G|------5---7-7-----7---------------------------------7--5--7-----------|
D|--5-------------------------------------------------------------------|
A|----------------------------------------------------------------------|
E|----------------------------------------------------------------------|



e|----------------------------------------------------------------------|
B|-------------------------5---6-6-----6--8---5-5-----------------------|
G|------5---7-7-----7---------------------------------7--5--7-----------|
D|--5-------------------------------------------------------------------|
A|----------------------------------------------------------------------|
E|----------------------------------------------------------------------|



e|----------------------------------------------6-6---5-----5-----------|
B|--------------------5--6---8-8-----6--8---------------8---------------|
G|------5---7-7-----------------------------------------------7---------|
D|--5-------------------------------------------------------------------|
A|----------------------------------------------------------------------|
E|----------------------------------------------------------------------|



e|----------------------5-----------------------------------------------|
B|------5---6-6---8----------------6--5-------6--5----------------------|
G|--7---------------------7-----7-----------7---------------------------|
D|----------------------------------------------------------------------|
A|----------------------------------------------------------------------|
E|----------------------------------------------------------------------|


e|----------------------------------------------------------------------|
B|-------------------------5---6-6-----6--8---5-5-----------------------|
G|------5---7-7-----7---------------------------------7--5--7-----------|
D|--5-------------------------------------------------------------------|
A|----------------------------------------------------------------------|
E|----------------------------------------------------------------------|



e|----------------------------------------------------------------------|
B|-------------------------5---6-6-----6--8---5-5-----------------------|
G|------5---7-7-----7---------------------------------7--5--7-----------|
D|--5-------------------------------------------------------------------|
A|----------------------------------------------------------------------|
E|----------------------------------------------------------------------|



e|----------------------------------------------6-6---5-----5-----------|
B|--------------------5--6---8-8-----6--8---------------8---------------|
G|------5---7-7-----------------------------------------------7---------|
D|--5-------------------------------------------------------------------|
A|----------------------------------------------------------------------|
E|----------------------------------------------------------------------|



e|----------------------5-----------------------------------------------|
B|------5---6-6---8----------------6--5---------------------------------|
G|--7---------------------7-----7-----------7--5--7---------------------|
D|----------------------------------------------------------------------|
A|----------------------------------------------------------------------|
E|----------------------------------------------------------------------|



e|------------------5---------1-----------------------------------------|
B|--3-/-6--6-6--8---5-----------3--------11-----------------------------|
G|--4-/-7--7-7--7---7--------------2------------10---------------7---10-|
D|--------------------------------------------------8------4/7----------|
A|----------------------------------------------------------------------|
E|----------------------------------------------------------------------|



e|----------------------------------------------------------------------|
B|--10---10---10---11-10-------8---8---8---8---10-----------------------|
G|--10---10---10---10-10-------9---9---9---9---9------------------------|
D|----------------------------------------------------------------------|
A|----------------------------------------------------------------------|
E|----------------------------------------------------------------------|



e|----------------------------------------------------------------------|
B|--10---10---10---11-10-------6/8---6---5---3--------------------------|
G|--10---10---10---10-10-------7/9---7---4---2--------------------------|
D|----------------------------------------------------------------------|
A|----------------------------------------------------------------------|
E|----------------------------------------------------------------------|



e|----------------------------------------------------------------------|
B|-------------8--10--8-------------8--10--8----------------------------|
G|--7-9-10---------------10--9--10--------------------------------------|
D|----------------------------------------------------------------------|
A|----------------------------------------------------------------------|
E|----------------------------------------------------------------------|



e|----------------------------------------------------------------------|
B|------8-10---8h10p8---------------------------------------------------|
G|--10----------------------10--9------9--------7-----------------------|
D|-----------------------------------------10------10-------------------|
A|----------------------------------------------------------------------|
E|----------------------------------------------------------------------|



e|----------------------------------------------------------------------|
B|---------------8------8---10---8--------------------------------------|
G|--7-9-10--9-10---10----------------10---7-----------------------------|
D|----------------------------------------------------------------------|
A|----------------------------------------------------------------------|
E|----------------------------------------------------------------------|



e|----------------------------------------------------------------------|
B|-------------8--10--10/11-------8-------------------------------------|
G|--7-9-10---------------------7-----10-----9-----7---------------------|
D|---------------------------------------------10-----------------------|
A|----------------------------------------------------------------------|
E|----------------------------------------------------------------------|



e|----------------------------------------------------------------------|
B|--10------11-----10---10---10--108-----------------------------------|
G|----------------------------------------------------------------------|
D|----------------------------------------------------------------------|
A|----------------------------------------------------------------------|
E|----------------------------------------------------------------------|



e|----------------------------------------------------------------------|
B|--8------6-----5---6---5--3-------------------------------------------|
G|----------------------------------------------------------------------|
D|----------------------------------------------------------------------|
A|----------------------------------------------------------------------|
E|----------------------------------------------------------------------|



e|----------------------------------------------------------------------|
B|--10------11-----10---10---10--108-----------------------------------|
G|----------------------------------------------------------------------|
D|----------------------------------------------------------------------|
A|----------------------------------------------------------------------|
E|----------------------------------------------------------------------|



e|----------------------------------------------------------------------|
B|--8------6-----5---6---5--3-------------------------------------------|
G|----------------------------------------------------------------------|
D|----------------------------------------------------------------------|
A|----------------------------------------------------------------------|
E|----------------------------------------------------------------------|



e|----------------------------8-----------------------------------------|
B|--10------11-----10---10-------10p8-----------------------------------|
G|----------------------------------------------------------------------|
D|----------------------------------------------------------------------|
A|----------------------------------------------------------------------|
E|----------------------------------------------------------------------|



e|----------------------------------------------------------------------|
B|--8------6-----5---6---5--3-------------------------------------------|
G|----------------------------------------------------------------------|
D|----------------------------------------------------------------------|
A|----------------------------------------------------------------------|
E|----------------------------------------------------------------------|



e|----------------------------8-----------------------------------------|
B|--10------11-----10---10-------10p8-----------------------------------|
G|----------------------------------------------------------------------|
D|----------------------------------------------------------------------|
A|----------------------------------------------------------------------|
E|----------------------------------------------------------------------|



e|----------------------------------------------------------------------|
B|--8------6-----5---6---5--3-------------------------------------------|
G|----------------------------------------------------------------------|
D|----------------------------------------------------------------------|
A|----------------------------------------------------------------------|
E|----------------------------------------------------------------------|

Que viva Colombia carajo!!!
Envía el tono de "Piratas del Caribe" a tu celular/móvil
Este fichero es trabajo propio de su transcriptor y representa su interpretación personal de la canción. El material contenido en esta página es
para exclusivo uso privado, por lo que se prohibe su reproducción o retransmisión, así como su uso para fines comerciales.
© LaCuerda.net · Aviso Legal · Privacidad