Tablatura para Guitarra de Música de Películas: Las Cuerdas Breñenses - Jinetes en el cielo
Conexión · Inscripción
Letras y Acordes
Pantalla Completa
Imprimir
Versión Texto
Añadir Favorito
Otras Versiones

Mostrar Diagramas
Desfile Automático
Manipular Acordes
Formato del Texto

Música de Películas
Las Cuerdas Breñenses - Jinetes en el cielo(TAB)
calidad:
mdpe1131
AUTOR: Los Babys
ALBUM: desconocido
Enviado por kevin
INTRO:

1e|----------------------------------------------------------------------->
2B|----------------------------------------------------------------------->
3G|------------------------------------------------------22-22-----------2>
4D|----------------------------------------0-2-22-0-2--22-----22-22-22 0-->
5A|--0-00-2-3-33-0-------------0-00-2-3-33-------------------------------->
6E|-0--------------3-33-0-3---0------------------------------------------->

              >---------------------|
              >---------------------|
CONTINUACION  >---------------------|
DEL INTRO-->  >---------------------|
              >-------3-33--3-0---0-|
              >-0-1-11---------3-0--|

ESTE RIFF1 QUE SE TOCA VARIAS VECES.
(AQUÍ EMPIESA EL ACOMPAÑAMIENTO DE LA BATERIA)
RIFF1:
4D|------------------------|
5A|-----777-----777-----777|
6E|-555-----555-----555----|

AQUI VIENE LA INTRO:

EN ESTA PARTE ENTRAN LOS RASGUEOS DE GUITARRA

1e|-0-0--0--0-0--0-0-|
2B|-1-1--1--1-1--1-1-| LES RECOMIENDO QUE LOS RASGUEOS LOS DEN CERCA
3G|-2-2--0--2-2--0-2-| DEL PUENTE, PARA QUE SE OIGAN MEJOR.
4D|-2-2--2--2-2--2-2-|
5A|-x-x--3--x-x--3-x-|
6E|-x-x--0--x-x--0-x-|

RIFF2:
4D|---------------|
5A|--------3--3-0-| ESTE RIFF2 VA DESPUES DE LOS RASGUEOS, ESCUCHA LA
6E|-1-1--1--------| CANCION PARA QUE LE DES LOS TIEMPOS.

LA INTRO:

<<<<<<<<<<EN LA SIGUIEMTE PARTE SE HACELERA UN POCO MAS EL TIEMPO>>>>>>>

1e|----------------------------------------------------------------------->
2B|----------------------------------------------------------------------->
3G|-----------------------------------------------------55-55------------->
4D|------------------------------------------5-55---5-55-----55-55-------->
5A|---3-33-5-6-66-3-------------3-33-5-6-66-8-----6----------------6-3---->
6E|-3---------------6-66-3-6---3------------------------------------------>

              >---------------------|
              >---------------------|
CONTINUACION  >---------------------|
DEL INTRO-->  >---------------------|
              >--------6-66-6-------|
              >-8-4-44-------88-6-8-|



1e|-0-0--0--0-0--0-0-|
2B|-1-1--1--1-1--1-1-| LES RECOMIENDO QUE LOS RASGUEOS LOS DEN CERCA
3G|-2-2--0--2-2--0-2-| DEL PUENTE, PARA QUE SE OIGAN MEJOR.
4D|-2-2--2--2-2--2-2-|
5A|-x-x--3--x-x--3-x-|
6E|-x-x--0--x-x--0-x-|

RIFF2:
4D|---------------|
5A|--------3--3-0-| ESTE RIFF2 VA DESPUES DE LOS RASGUEOS, ESCUCHA LA
6E|-1-1--1--------| CANCION PARA QUE LE DES LOS TIEMPOS.


RIFF1:
4D|------------------------|
5A|-----777-----777-----777| HASTA QUE ACABE LA CANCIÓN.
6E|-555-----555-----555----|

ESTA MUY BUENA........ ESTO BA PEGADO CON 3 CANCIONES MAS
QUE SON: "EL BUENO, EL MALO Y EL FEO......."
LA OTRA ES:"CAMINO A SAN FRANCISCO........"
LA OTRAS ES:"POCHOCLO"
Envía el tono de "Las Cuerdas Breñenses - Jinetes en el cielo" a tu celular/móvil
Este fichero es trabajo propio de su transcriptor y representa su interpretación personal de la canción. El material contenido en esta página es
para exclusivo uso privado, por lo que se prohibe su reproducción o retransmisión, así como su uso para fines comerciales.
© LaCuerda.net · Aviso Legal · Privacidad