Tablatura para Guitarra de Música Clasica: VillaLobos - Preludio 1
Conexión · Inscripción
Letras y Acordes
Pantalla Completa
Imprimir
Versión Texto
Añadir Favorito
Otras Versiones

Mostrar Diagramas
Desfile Automático
Manipular Acordes
Formato del Texto

Música Clasica
VillaLobos - Preludio 1(TAB)
calidad:
mcla2031
AUTOR: Heitor villa-lobos
ALBUM: desconocido
Enviado por Arturo
Ahi les va el preludio No. 1 de Heitor Villa-Lobos
(Homage to the Brazilian sertanejo)

Tuning : E A D G B E       Time Signature 3/4

   p - pulloff
   h - hammeron
   s - slide
==== - sustain

(12)=natural armonic
[12]=artificial armonic

 |       |       |        |       |       |        |       |       |
|------------------------|----0---0---0-------0---|----0---0---0-------0---|
|------------------------|----0---0---0-------0---|----0---0---0-------0---|
|------------------------|----0---0---0-------0---|----0---0---0-------0---|
|------------------------|------------------------|----------------7-------|
|----------2------2s7----|7---------------9-------|10----------------------|
|--------------0---------|0-----------------------|------------------------|

 |       |       |        |       |       |        |       |       |
|----0---0---0-------0---|----0---0---0-------0---|----0---0---0-------0---|
|----0---0---0-------0---|----0---0---0-------0---|----0---0---0-------0---|
|----0---0---0-------0---|----0---0---0-------0---|----0---0---0-------0---|
|9---------------9-------|12--------------10------|9---------------2-------|
|------------------------|------------------------|------------------------|
|------------------------|------------------------|------------------------|

 |       |       |        |       |       |        |       |       |
|----0---0---0---0---0---|0---0---0---0---0---0---|----5---5---5-----------|
|----0---0---0---0---0---|0---0---0---0---0---0---|----5---5---5-------0---|
|----0---0---0-------0---|----0---0---0---0---0---|----5---5---5-------9---|
|9---------------9-------|9---------------9-------|7-------------------10--|
|----------------10------|9---------------7-------|0---------------7-------|
|0-----------------------|------------------------|------------------------|

 |       |       |        |       |       |        |       |       |
|------------------------|------------------------|------------------------|
|----0---0---0---0---0---|----0---0---0---0---0---|----0---0---0-------0---|
|----10--10--10--10--10--|----9---9---9---8---8---|----2---2---2-------2---|
|----9---9---9---9---9---|----8---8---7---7---7---|----1---1---1-------1---|
|10----------------------|9---------------9-------|2---------------0-------|
|------------------------|------------------------|------------------------|

 |       |       |        |       |       |        |       |       |
|------------------------|----0---0---0-------0---|----0---0---0-------0---|
|----0---0---0-------0---|----0---0---0-------0---|----0---0---0-------0---|
|----0---0---0-------2---|----0---0---0-------0---|----0---0---0-------0---|
|----1---1---1-------1---|------------------------|----------------7-------|
|----------------2-------|7---------------9-------|10----------------------|
|3---------------2-------|0-----------------------|------------------------|

 |       |       |        |       |       |        |       |       |
|----0---0---0-------0---|----0---0---0-------0---|----0---0---0-------0---|
|----0---0---0-------0---|----0---0---0-------0---|----0---0---0-------0---|
|----0---0---0-------0---|----0---0---0-------0---|----0---0---0-------0---|
|9---------------9-------|14--------------12------|11----------------------|
|------------------------|------------------------|----------------10------|
|------------------------|0-----------------------|------------------------|

 |       |       |        |       |       |        |       |       |
|----0---0---0---0---0---|----0---0---0-----------|----0---0---0---0---0---|
|----0---0---0---0---0---|----10--10--10------10--|----10--10--10--10--10--|
|----0---0---0---0---0---|----9---9---9-------9---|----9---9---9---9---9---|
|11----------------------|10------------------10--|10----------------------|
|------------------------|0---------------9-------|------------------------|
|------------------------|------------------------|------------------------|

 |       |       |        |       |       |        |       |       |
|----0---0---0-------0---|----6---6---6-------5---|----8---8---8-------7---|
|----0---0---0-------0---|----5---5---5-------4---|----7---7---7-------6---|
|----0---0---0-------0---|----6---6---6-------5---|----8---8---8-------7---|
|9-----------------------|5---------------4-------|7---------------6-------|
|----------------7-------|------------------------|------------------------|
|------------------------|------------------------|------------------------|

 |       |       |        |       |       |        |       |       |
|----10------9-------11--|----10------13------10--|----7-------4-------1---|
|----9-------8-------10--|----9-------12------9---|----6-------3-------0---|
|----10------9-------11--|----10------13------10--|----7-------4-------1---|
|9-------8-------10------|9-------12------9-------|6-------3-------0-------|
|------------------------|------------------------|------------------------|
|------------------------|------------------------|------------------------|

 |       |       |        |       |       |        |       |       |
|2-----------------------|------------------------|----0---0---0-------0---|
|0---0---0---0-------0---|----0---0---0-------0---|----0---0---0-------0---|
|2---2---2---2-------2---|----0---0---0-------2---|----0---0---0-------0---|
|1-------------------1---|----1---1---1-------1---|------------------------|
|2---------------0-------|----------------2-------|7---------------9-------|
|------------------------|3---------------2-------|0-----------------------|

|       |       |        |       |       |        |       |       |
|----0---0---0-------0---|----0---0---0-------0---|----0---0---0-------0---|
|----0---0---0-------0---|----0---0---0-------0---|----0---0---0-------0---|
|----0---0---0-------0---|----0---0---0-------0---|----0---0---0-------0---|
|------------------------|------------------------|16--------------14------|
|10--------------12------|14--------------14------|------------------------|
|------------------------|------------------------|0-----------------------|

 |       |       |        |       |       |        |       |       |
|----13--14--13--14--13--|----12--13--12--13--12--|----11--12--11--12--11--|
|----0---0---0---0---0---|----0---0---0---0---0---|----0---0---0---0---0---|
|----13--14--13--14--13--|----12--13--12--13--12--|----11--12--11--12--11--|
|12--------------12------|11--------------11------|10--------------10------|
|------------------------|------------------------|------------------------|
|------------------------|------------------------|------------------------|

 |       |       |        |       |       |        |       |       |
|----10--11--10--11--10--|11--10--11--10--11--10--|11--10--11--10--11--10--|
|----0---0---0---0---0---|0---0---0---0---0---0---|0---0---0---0---0---0---|
|----10--11--10--11--10--|11--10--11--10--11--10--|11--10--11--10--11--10--|
|9---------------9-------|9---------------9-------|9---------------9-------|
|------------------------|------------------------|------------------------|
|------------------------|------------------------|------------------------|

 |       |       |        |       |       |        |       |       |
|11------------------0---|----0-------0-------0---|--------0-------0-------|
|0-------------------0---|----0-------0-------0---|----8---8---8---8---8---|
|11------------------0---|----0-------0-------0---|----9---9---9---9---9---|
|9---4---5---------------|------------------------|----8-------8-------8---|
|------------6---7---3---|2---0-------------------|------------------------|
|------------------------|--------3---2---0---3---|8---------------8-------|

 |       |       |        |       |       |        |       |       |
|--------0-------0-------|----12--0---0---0-------|------------------------|
|----7---7---7---7---7---|----12--12--0---0---0---|0---0---0---0---0---0---|
|----8---8---8---8---8---|----12--12--12--0---0---|0---0---0---0---0---0---|
|----7-------7-------7---|--------------------2---|2---2---2---2---2---2---|
|------------------------|------------------------|3---2---0---------------|
|7---------------7-------|12----------------------|------------3---0---3---|

 |       |       |        |       |       |        |       |       |
|--------0-------0-------|--------0-------0-------|----12--0---0---0-------|
|----8---8---8---8---8---|----7---7---7---7---7---|----12--12--0---0---0---|
|----9---9---9---9---9---|----8---8---8---8---8---|----12--12--12--0---0---|
|----8-------8-------8---|----7-------7-------7---|--------------------2---|
|------------------------|------------------------|------------------------|
|8---------------8-------|7---------------7-------|12----------------------|

 |       |       |        |       |       |        |       |       |
|0---0-------------------|--------0-------0-------|--------1-------1-------|
|0---0---0---0---0---0---|----0---0---0---0---0---|----1---1---1---1---1---|
|0---0---0---0---0---0---|----0---0---0---0---0---|----2---2---2---2---2---|
|0-------0---0---0---0---|----2-------2-------2---|----3-------3-------3---|
|----3---2---0-----------|4-----------------------|3-----------------------|
|----------------3---2---|0-----------------------|0-----------------------|

 |       |       |        |       |       |        |       |       |
|--------2-------3-------|------------------0-4-7-|7-5h7p5-4---0---4-2h4p2-|
|----0---0---0---0---0---|*---------------0---0---|0-------0-------2-------|
|----2---2---2---2---2---|--------------1---------|----------------2-------|
|----1-------1-----------|*-----------2-----------|----------------2-------|
|2-----------------------|----------2-------------|----------------2-------|
|0-----------------------|--------0---------------|------------------------|

 |       |       |        |       |       |        |       |       |
|--------0---------0-4-7-|7-5h7p5-4---0---4-2h4p2-|--------0---------0-4-7-|
|----------------0---0---|0-------0-------2-------|----------------0---0---|
|--------------1---------|----------------2-------|--------------1---------|
|------------2-----------|----------------2-------|------------2-----------|
|----------2-------------|----------------2-------|----------2-------------|
|--------0---------------|------------------------|--------0---------------|

 |       |       |        |       |       |        |       |       |
|12------11------9h11p9--|7-----------------0-4-7-|12------10------8h10p8--|
|10----------------------|9---------------0---0---|10----------------------|
|9-----------------------|9-------------1---------|10----------------------|
|11----------------------|------------2-----------|10----------------------|
|0-----------------------|----------2-------------|0-----------------------|
|------------------------|0-----------------------|------------------------|

 |       |       |        |       |       |        |       |       |
|--7----------------0-4-7-|7-5h7p5-4---0---4-2h4p2-|--------0---------0-4-7-|
|--9--------------0---0---|0-------0-------2-------|----------------0---0---|
|--9------------1---------|----------------2-------|--------------1---------|
|-------------2-----------|----------------2-------|------------2-----------|
|-----------2-------------|----------------2-------|----------2-------------|
|--0----------------------|------------------------|--------0---------------|

 |       |       |        |       |       |        |       |       |
|7-5h7p5-4---0---4-2h4p2-|0---------0-2-4-4-2h4p2-|0---------0-2-4-4-2h4p2-|
|0-------0-------2-------|--------0-------2-------|--------0-------2-------|
|----------------2-------|------1---------2-------|------1---------2-------|
|----------------2-------|----2-----------2-------|----2-----------2-------|
|----------------2-------|--2-------------2-------|--2-------------2-------|
|------------------------|0-----------------------|0-----------------------|

 |       |       |        |       |       |        |       |       |
|--------0---------0-2-3-|3-------2-------0-2-0---|3-------2-------0-2-0---|
|----------------0-------|1-----------------------|1-----------------------|
|--------------1---------|0-----------------------|0-----------------------|
|------------2-----------|2-----------------------|2-----------------------|
|----------2-------------|0-----------------------|0-----------------------|
|--------0---------------|------------------------|------------------------|

                         |Ending 1-----------
 |       |       |        |       |       |        |       |       |
|3-------2-------0-2-0---|7-----------------------|7-----------------------|
|1-----------------------|7-------7------<12>-----|7-------7------<12>-----|
|0-----------------------|8-------8------<12>-----|8-------8------<12>-----|
|2-----------------------|9-------9---------------|9-------9---------------|
|0-----------------------|9-----------------------|9-----------------------|
|------------------------|7-----------------------|7-----------------------|

 |       |       |        |       |       |        |       |       |
|8-----------------------|7-----------------------|5-----------------------|
|8-------8------<12>-----|7-------7------<12>-----|5-------5------<12>-----|
|--------9------<12>-----|8-------8------<12>-----|6-------6------<12>-----|
|10------10--------------|9-------9---------------|7-------7---------------|
|10----------------------|9-----------------------|7-----------------------|
|8-----------------------|7-----------------------|5-----------------------|

 |       |       |        |       |       |        |       |       |
|3-----------------------|1-----------------------|2-----------------------|
|3-------3------<12>-----|1-------1------<12>-----|4-------4------<12>----*|
|4-------4------<12>-----|2-------2------<12>-----|2-------2---------------|
|5-------5---------------|3-------3---------------|4-------4--------------*|
|5-----------------------|3-----------------------|2-----------------------|
|3-----------------------|1-----------------------|2-----------------------|

|Ending 2---------
 |       |       |        |       |       |        |       |       |
|2-----------------------|------------------------|----0---0---0-------0---|
|0---0---0---0-------0---|----0---0---0-------0---|----0---0---0-------0---|
|2---2---2---2-------2---|----0---0---0-------2---|----0---0---0-------0---|
|1---1---1---1-------1---|----1---1---1-------1---|------------------------|
|2---------------0-------|----------------2-------|7---------------9-------|
|------------------------|3---------------2-------|0-----------------------|

 |       |       |        |       |       |        |       |       |
|----0---0---0-------0---|----0---0---0-------0---|----0---0---0-------0---|
|----0---0---0-------0---|----0---0---0-------0---|----0---0---0-------0---|
|----0---0---0-------0---|----0---0---0-------0---|----0---0---0-------0---|
|----------------7-------|9---------------9-------|12--------------10------|
|10----------------------|------------------------|------------------------|
|------------------------|------------------------|------------------------|

 |       |       |        |       |       |        |       |       |
|----0---0---0-------0---|----0---0---0---0---0---|0---0---0---0---0---0---|
|----0---0---0-------0---|----0---0---0---0---0---|0---0---0---0---0---0---|
|----0---0---0-------0---|----0---0---0-------0---|----0---0---0---0---0---|
|9---------------2-------|9---------------9-------|9---------------9-------|
|------------------------|----------------10------|9---------------7-------|
|------------------------|0-----------------------|------------------------|

 |       |       |        |       |       |        |       |       |
|----5---5---5-----------|------------------------|------------------------|
|----5---5---5-------0---|----0---0---0---0---0---|----0---0---0---0---0---|
|----5---5---5-------9---|----10--10--10--10--10--|----9---9---9---8---8---|
|7-------------------10--|----9---9---9---9---9---|----8---8---7---7---7---|
|0---------------7-------|10----------------------|9---------------9-------|
|------------------------|------------------------|------------------------|

 |       |       |        |       |       |        |       |       |
|------------------------|------------------------|----0---0---0-------0---|
|----0---0---0-------0---|----0---0---0-------0---|----0---0---0-------0---|
|----2---2---2-------2---|----0---0---0-------2---|----0---0---0-------0---|
|----1---1---1-------1---|----1---1---1-------1---|------------------------|
|2---------------0-------|----------------2-------|7---------------9-------|
|------------------------|3---------------2-------|0-----------------------|

 |       |       |        |       |       |        |       |       |
|----0---0---0-------0---|----0---0---0-------0---|----0---0---0-------0---|
|----0---0---0-------0---|----0---0---0-------0---|----0---0---0-------0---|
|----0---0---0-------0---|----0---0---0-------0---|----0---0---0-------0---|
|----------------7-------|9---------------9-------|14--------------12------|
|10----------------------|------------------------|------------------------|
|------------------------|------------------------|0-----------------------|

 |       |       |        |       |       |        |       |       |
|----0---0---0-------0---|----0---0---0---0---0---|----0---0---0-----------|
|----0---0---0-------0---|----0---0---0---0---0---|----10--10--10------10--|
|----0---0---0-------0---|----0---0---0---0---0---|----9---9---9-------9---|
|11----------------------|11----------------------|10------------------10--|
|----------------10------|------------------------|0---------------9-------|
|------------------------|------------------------|------------------------|

 |       |       |        |       |       |        |       |       |
|----0---0---0---0---0---|----0---0---0-------0---|----6---6---6-------5---|
|----10--10--10--10--10--|----0---0---0-------0---|----5---5---5-------4---|
|----9---9---9---9---9---|----0---0---0-------0---|----6---6---6-------5---|
|10----------------------|9-----------------------|5---------------4-------|
|------------------------|----------------7-------|------------------------|
|------------------------|------------------------|------------------------|

 |       |       |        |       |       |        |       |       |
|----8---8---8-------7---|----10------9-------11--|----10------13------10--|
|----7---7---7-------6---|----9-------8-------10--|----9-------12------9---|
|----8---8---8-------7---|----10------9-------11--|----10------13------10--|
|7---------------6-------|9-------8-------10------|9-------12------9-------|
|------------------------|------------------------|------------------------|
|------------------------|------------------------|------------------------|

 |       |       |        |       |       |        |       |       |
|----7-------4-------1---|2-----------------------|------------------------|
|----6-------3-------0---|0---0---0---0-------0---|----0---0---0-------0---|
|----7-------4-------1---|2---2---2---2-------2---|----0---0---0-------2---|
|6-------3-------0-------|1-------------------1---|----1---1---1-------1---|
|------------------------|2---------------0-------|----------------2-------|
|------------------------|------------------------|3---------------2-------|

 |       |       |        |       |       |        |       |       |
|----0---0---0-------0---|----0---0---0-------0---|----0---0---0-------0---|
|----0---0---0-------0---|----0---0---0-------0---|----0---0---0-------0---|
|----0---0---0-------0---|----0---0---0-------0---|----0---0---0-------0---|
|------------------------|------------------------|------------------------|
|7---------------9-------|10--------------12------|14--------------14------|
|0-----------------------|------------------------|------------------------|

 |       |       |        |       |       |        |       |       |
|----0---0---0-------0---|----13--14--13--14--13--|----12--13--12--13--12--|
|----0---0---0-------0---|----0---0---0---0---0---|----0---0---0---0---0---|
|----0---0---0-------0---|----13--14--13--14--13--|----12--13--12--13--12--|
|16--------------14------|12--------------12------|11--------------11------|
|------------------------|------------------------|------------------------|
|0-----------------------|------------------------|------------------------|

 |       |       |        |       |       |        |       |       |
|----11--12--11--12--11--|----10--11--10--11--10--|11--10--11--10--11--10--|
|----0---0---0---0---0---|----0---0---0---0---0---|0---0---0---0---0---0---|
|----11--12--11--12--11--|----10--11--10--11--10--|11--10--11--10--11--10--|
|10--------------10------|9---------------9-------|9---------------9-------|
|------------------------|------------------------|------------------------|
|------------------------|------------------------|------------------------|

 |       |       |        |       |       |        |       |       |
|11--10--11--10--11--10--|11------------------0---|----0-------0-------0---|
|0---0---0---0---0---0---|0-------------------0---|----0-------0-------0---|
|11--10--11--10--11--10--|11------------------0---|----0-------0-------0---|
|9---------------9-------|9---4---5---------------|------------------------|
|------------------------|------------6---7---3---|2---0-------------------|
|------------------------|------------------------|--------3---2---0---3---|

 |       |       |        |       |       |        |       |       |
|--------0-------0-------|--------0-------0-------|----12--0---0---0-------|
|----8---8---8---8---8---|----7---7---7---7---7---|----12--12--0---0---0---|
|----9---9---9---9---9---|----8---8---8---8---8---|----12--12--12--0---0---|
|----8-------8-------8---|----7-------7-------7---|--------------------2---|
|------------------------|------------------------|------------------------|
|8---------------8-------|7---------------7-------|<12>--------------------|

 |       |       |        |       |       |        |       |       |
|------------------------|--------0-------0-------|--------0-------0-------|
|0---0---0---0---0---0---|----8---8---8---8---8---|----7---7---7---7---7---|
|0---0---0---0---0---0---|----9---9---9---9---9---|----8---8---8---8---8---|
|2---2---2---2---2---2---|----8-------8-------8---|----7-------7-------7---|
|3---2---0---------------|------------------------|------------------------|
|------------3---0---3---|8---------------8-------|7---------------7-------|

 |       |       |        |       |       |        |       |       |
|----12--0---0---0-------|0---0-------------------|--------0-------0-------|
|----12--12--0---0---0---|0---0---0---0---0---0---|----0---0---0---0---0---|
|----12--12--12--0---0---|0---0---0---0---0---0---|----0---0---0---0---0---|
|--------------------2---|0-------0---0---0---0---|----2-------2-------2---|
|------------------------|----3---2---0-----------|4-----------------------|
|<12>--------------------|----------------3---2---|0-----------------------|

 |       |       |        |       |       |        |       |       |
|--------0-------0-------|--------0-------0-------|0-------0-------0-------|
|----0---0---0---0---0---|----0---2---0---2---0---|2---0---2---0---2---0---|
|----2---2---2---2---2---|----1---1---1---1---1---|1---1---1---1---1---1---|
|----4-------4-------4---|----2-------2-------2---|----2-------2-------2---|
|3-----------------------|2-----------------------|2-----------------------|
|0-----------------------|0-----------------------|0-----------------------|

 |       |       |
|------------------------|
|------------------------|
|------------------------|
|------------------------|
|------------------------|
|0-----------------------|
Envía el tono de "VillaLobos - Preludio 1" a tu celular/móvil
Este fichero es trabajo propio de su transcriptor y representa su interpretación personal de la canción. El material contenido en esta página es
para exclusivo uso privado, por lo que se prohibe su reproducción o retransmisión, así como su uso para fines comerciales.
© LaCuerda.net · Aviso Legal · Privacidad