Tablatura para Guitarra de Música Clasica: Balada para adelina
Conexión · Inscripción
Letras y Acordes
Pantalla Completa
Imprimir
Versión Texto
Añadir Favorito
Otras Versiones

Mostrar Diagramas
Desfile Automático
Manipular Acordes
Formato del Texto

Música Clasica
Balada para adelina(TAB)
calidad:
mcla1671
AUTOR: Música Clasica  corregir
ALBUM: desconocido
Enviado por Lualanmi
Hola gente de la cuerda.net, le escribe lualanmi otra vez, esta vez
les escribo para enviarles esta tablatura, que espero les guste.

He creado un video como referencia para que se vayan guiando,
 aqui dejo el video:


http://www.youtube.com/watch?v=7AkeHE46Ln4
(Nuevo video)
_________________________________





     C

E|----------------------------------|
B|------1-3-----1-3-----1-3-----1-3-|
G|----0-------0-------0-------0-----|
D|----------------------------------|
A|--3-------3-------3-------3-------|
E|----------------------------------|



E|------0-------0-------0-------0---|--0-----0-----------0----1-|
B|--1-------------------------------|---------------------------|
G|----0---0---0---0---0---0---0---0-|--0-----0-----------0----2-|
D|----------------------------------|--------2-----2-----2------|
A|--3-------3-------3-------3-------|--3------------------------|
E|----------------------------------|-----3-----3-----3-----3---|


  F/G                             G

E|--1------1-------1-1-1-1-1-1-3-|--3-----3-----------3---5-|
B|-------------------------------|--------------------------|
G|--2------2-------2-2-2-2-2-2-4-|--4-----4-----------4---4-|
D|--0------3-----3---------------|-----0-----0-----0--------|
A|-------------------0---3-------|--------------------------|
E|------3-----3------------------|--3-----------------------|


  Em

E|--0-----------------------|--0-----0-------0-0-0-0-0-0-1-|
B|--------------------------|------------------------------|
G|--0-----------------------|--0-----0-------0-0-0-0-0-0-2-|
D|--------2-----2-----2-----|--2-----2-------2---2---2-----|
A|--3-----------------------|--3-----------------------3---|
E-----3-----3-----3-----3--|-----3-----3--L---3---3-------|


  F

E|--1-----1-------1-1-1-1-1-1-3-|--3-----3-----------3---5-|
B|------------------------------|--0-----------0--3--------|
G|--2-----2-------2-2-2-2-2-2-4-|--4-----4-----0-----4---5-|
D|--0-----3-----0-3---3---3-----|-----0-----0--------------|
A|-----0-----0--L---0---0---0---|--------------------------|
E|------------------------------|--3-----------------------|



E|---------------------|----0-12-0-10-0--8-0-------------------|
B|--5------------------|------13---12---10-----0-12-0-10-0-8-0-|
G|---------------------|-------------------------12---11---9---|
D|--5------------------|---------------------------------------|
A|--3------------3--2--|--0------------------------------------|
E|---------------------|---------------------0-----------------|




E|------------------------------------------------------|
B|--10-------8------------------------------------------|
G|--10-------7--10--9p-0--0--7p-0--0--5p-0--0--4p-0--0--|
D|--10---10--9------------------------------------------|
A|---8------10------7--------5--------3--------2--------|
E|------------------------------------------------------|



E|----------------------------------------------------------------|
B|------------------------------------5---3---1-------0-----------|
G|------------------------------------5---4---2-------0---2---0---|
D|--------------------------------------2---2---2---------4---2---|
A|--0-----------------------------------------------2---2---2---2-|
E|------------------------------------------------0---------------|



E|------------------------------|
B|------------------------------|
G|--2----0----0-----------------|
D|--3-------3---------0-----0-3-|
A|--3---------------3-----3-----|
E|--1-----------3-3-----3-------|




E|---------------------------------------|
B|--------------------3-----3------------|
G|-------0------0---0-----0--------------|
D|--0h-3---0h-3---0-----0-----5----------|
A|---------------------------------------|
E|--3-------------3----------------------|

E|-------------------------------------------10-------------10-|
B|------------------6h-8-----6h-8--------8---------------8-----|
G|----------------7--------7-------7--10-----------7--10-------|
D|-----------------------5-------------------------------------|
A|-------------------------------------------------------------|
E|-------------------------------------------------------------|




E|-----------15-----------15-----------15-----------15-12-----12-----|
B|----13h-15-------13h-15-------12h-15-------12h-15------------------|
G|-12-----------12-----------12-----------12-----------12-----12-----|
D|-----------------------------------------------------10------------|
A|---------------------------------------------------------10-----10-|
E|-------------------------------------------------------------------|



E|--------12---13-13-----13-----|
B|------------------------------|
G|--------12---14-14-----14-----|
D|------------------------------|
A|--------------------0------0--|
E|--12----12------13-----13-----|



E|-----13-13-13-13-13-13-15-15-----15-----|
B|----------------------------------------|
G|-----14-14-14-14-14-14-16-16-----16-----|
D|------------------------------0------0--|
A|----------------------------------------|
E|--13----------13----13-14-15------------|



E|--------15---17-12----15----------|
B|-------------------------16-------|
G|--------16---17-12----------15----|
D|-----0----------10-------------17-|
A|----------------------------------|
E|----------------------------------|



E|--13------------------12-----12-----|
B|-----13-----------------------------|
G|--------14----7-------12--0--12--0--|
D|-----------15-7--9-5----------------|
A|------------------------------------|
E|----------------------12-----12-----|



E|-----12-12-12-12-12-12-13-13-----13-----|
B|----------------------------------------|
G|-----12-12-12-12-12-12-14-14-----14-----|
D|--10----------------10-11-12------------|
A|------------------------------0------0--|
E|--------------12-----------------13-----|



E|----13-13-13-13-13-13-15-15-----15---|--------15---17-12-----------|
B|---------------------------------0---|--0--3---0-------------3-----|
G|----14-14-14-14-14-14-16-16-----16---|--------16---17-12--0-----0--|
D|--0--------------------------0------0|----------------10-----------|
A|-------------------------------------|-----------------------------|
E|----------13-------13-14-15----------|--3--------------------------|



E|-----------3----0-12-0-10-0--8-0-|
B|--5-----5---------13---12---10---|
G|-----0--5--4---------------------|
D|---------------------------------|
A|--------------0------------------|
E|---------------------------------|



E|----------------------------------3-|
B|----0-12-0-10-0-8-0-10-------8--6-5-|
G|------12---11---9---10-------7----5-|
D|--------------------10---10--9--5-5-|
A|----------------------------10------|
E|--0---------------------------------|



E|----------------------------------|------------------------------|
B|--3-1-----------------5---3---1---|------------------------------|
G|------0---------------5---4---2---|------4---2---0---2----0----0-|
D|------0-2---------------2---2---2-|------5---4---2---3-------3---|
A|--3-------3---3-2-0---------------|----2---2---2---2-3-----------|
E|------------3-------0-------------|--0---------------------------|



E|--------------------------------------------|
B|------------------------------------3-----3-|
G|-----------------------0------0---0-----0---|
D|--------0-----0-3-0h-3---0h-3---0-----0-----|
A|------3-----3-------------------------------|
E|--3-3-----3-------3------3------3-----3-----|




E|----------------------------10---------10-----------15--|
B|-------6h-8-----6-8-------8----------8-------13--15-----|
G|-----7--------7-----7h-10------7h-10------12------------|
D|--5----------5------------------------------------------|
A|--------------------------------------------------------|
E|--------------------------------------------------------|


E|--------15-15--------15-15---|
B|-----12-----------12---------|
G|--12-----------12------------|
D|-----------------------------|
A|-----------------------------|
E|-----------------------------|



E|--12------12-----0-----12---13-|
B|-------------------------------|
G|--12------12--0-----0--12---14-|
D|--10---------------------------|
A|------10-----------------------|
E|----------12-----------12------|



E|--13-----13--------13-13-13-13-13-13-15-|
B|----------------------------------------|
G|--14-----14--------14-14-14-14-14-14-16-|
D|---0------------15----------------------|
A|------0------0--------------------------|
E|---------13-----------------13----------|



E|--15-----15------------15---17-|
B|----------0--------------------|
G|--16-----16------------16---17-|
D|------0----------17------------|
A|-------------17----------------|
E|--15---------------------------|



E|--12----15----------13-----------------|
B|-----------16----------13---------0----|
G|--12----------15----------14----7---0--|
D|--10-------------17----------15-7------|
A|---------------------------------------|
E|---------------------------------------|



E|--12----12------12-12-12-12-12-12-13-|
B|-------------------------------------|
G|--12----12------12-12-12-12-12-12-14-|
D|--10------------10-------------------|
A|-------------------------------------|
E|-------------------------------------|



E|--13--13----L-13-13-13-13-13----15-|--15----15------------15---17-|
B|-----------------------------------|------------------15----------|
G|--14--14----L-14-14-14-14-14-14-16-|--16----16----16------16---17-|
D|---0-----------0-------------15--0-|------------------------------|
A|-----------------------------------|------------------------------|
E|-----------------------------------|------------------------------|



E|--12--------0-------------|--12------12-----0-12-12-12-12-12-12-13-|
B|----------1----------0----|----------------------------------------|
G|---9---0--------2----0----|--12------12--0----12-12-12-12-12-12-14-|
D|----------------3---------|--10------------------------------------|
A|--------------------------|------10--------------------------------|
E|--------------------------|----------12-----0----------12----------|



E|--13-----13--------13-13-13-13-13-13-15-|
B|----------------------------------------|
G|--14-----14--------14-14-14-14-14-14-16-|
D|---0------------15----------------------|
A|------0------0--------------------------|
E|---------13-----------------13----------|



E|--15-----15----------15---17-|--12--15--0---------5-13-15-------17-|
B|----------0------------------|-------------8----6------------------|
G|--16-----16----------16---17-|--12---------------------16----16----|
D|------0----------17----------|----------------7-----------17-------|
A|-------------17--------------|-------------------------------------|
E|--15-----15------------------|-------------------------------------|



E|--12--15--0---------5-13-15-------17-|--0----8/15----------------|
B|-------------8----6------------------|-----8---------------------|
G|--12---------------------16----16----|--0------------------------|
D|----------------------------17-------|---------------------------|
A|----------------8--------------------|---------------------------|
E|-------------------------------------|---------------------------|


Bueno, espero les guste...Esta tabs se la dedico a mis
mejores amigos: Manuel, Jhon, Elver, David, Luz, Mary, Damaris,
Alisson, Sara, Sandra, Jorge, Mercedes, Helen, German, Mario, Yerson,
 Carol, Evelyn, Katerine, Cinthia, Frank, Jorge, Victor, etc etc
Mis 'manos del alma :)
Envía el tono de "Balada para adelina" a tu celular/móvil
Este fichero es trabajo propio de su transcriptor y representa su interpretación personal de la canción. El material contenido en esta página es
para exclusivo uso privado, por lo que se prohibe su reproducción o retransmisión, así como su uso para fines comerciales.
© LaCuerda.net · Aviso Legal · Privacidad