Tablatura para Guitarra de Música Católica: El pescador
Conexión · Inscripción
Letras y Acordes
Pantalla Completa
Imprimir
Versión Texto
Añadir Favorito
Otras Versiones

Mostrar Diagramas
Desfile Automático
Manipular Acordes
Formato del Texto


Música Católica
El pescador(TAB)
calidad:
cato1023
AUTOR: Música Católica  corregir
ALBUM: desconocido
Enviado por Edson
Tema de Juan Pablo II

Intro

e------0---3-2------------------------------------------------------
b--3----------------0-----------------------------------------------
g----------------------2--------------------------------4-4-4-2-----
d--------------------------4/5--5--4--4/5/4--2----------------------
a-------------------------------------------------------------------
E-------------------------------------------------------------------

e------0-2--3--2---2-2--3--0----------------------------------------
b--3--------------------------------3----3--------------------------
g------------------------------------------2-----2/4/2---2----------
d-------------------------------------------------------------------
a-------------------------------------------------------------------
E-------------------------------------------------------------------


 'Pescador, Cristo te hizo pescador,
indícanos donde encontrarlo
D A
para ser con Él, felices como Tú'
D
Voy
A Bm
navegando sin timón
G
en mar abierto
Gm A
me abandona la razón.
D A
Apenas y sobrevivo como un niño perdido
G
busco algo que no hay en mi interior.
D
Mas
A Bm
de repente llegas Tú
G
y en tu palabra
Gm A
el faro de la blanca luz.
D A
Llévame a puerto seguro donde hay un futuro
G
donde exista un cielo más azul. CORO
D A
Tu palabra es la esperanza que buscamos tantas almas
G Gm A
Pescador, Tú serás el viento nuevo.
D A
Tu serás el amigo que nos lleve a un mundo nuevo
D A G
en tu gran corazón infinito [bis]
A Bm
cuesta a veces continuar
G
en el naufragio
Gm A
y entre tanta oscuridad.
D A
En medio de un mar que calla y la fe que nos falta
G
voy en busca de un poco de paz
D
Mas
A Bm
de repente llegas tú
G
y en tu palabra
Gm A
el faro de la blanca luz
D A
Llévame a puerto seguro donde hay un futuro
G
donde exista un cielo más azul. CORO Parroquia Santuario Nuestra Señora del Carmen de la Legua Comunidad de Catequistas Pescador de Hombres Callao - Peru edson_oviedoc@hotmail.com Bendiciones
Este fichero es trabajo propio de su transcriptor y representa su interpretación personal de la canción. El material contenido en esta página es
para exclusivo uso privado, por lo que se prohibe su reproducción o retransmisión, así como su uso para fines comerciales.

© LaCuerda.net · Aviso Legal · Privacidad