Tablatura para Guitarra de Moderatto: Mil Demonios
Conexión · Inscripción
Letras y Acordes
Pantalla Completa
Imprimir
Versión Texto
Añadir Favorito
Otras Versiones

Mostrar Diagramas
Desfile Automático
Manipular Acordes
Formato del Texto

Moderatto
Mil Demonios(TAB)
calidad:
mdrt0431
AUTOR: Javier U
ALBUM: Queremos Rock (2008)
Enviado por Jorge
Esta es la parte del solo

                X2
e|-------14------14------14------14------|
B|-----15--15--15--15--15--15--15--15----|
G|-o-14------15------16------15--------o-|
D|-o-----------------------------------o-|
A|---------------------------------------|
E|---------------------------------------|

e|-----------------------------------------------------|
B|-----------------------------------------------------|
G|-2/4-4-2-------2---------2---------------------------|
D|---------4-2-4---4----2/3—3/2p0-2-0-----0------------|
A|------------------------------------2-0---2----------|
E|-----------------------------------------------------|

e|-----------------------------------------------------------------|
B|-----------------------------------------------------------------|
G|-----7-9-7-10p9p7-9-7---/11-11-12-13-14---9b11r9-7-9--9b11r9-7-9-|
D|-7/9-------------------------------------------------------------|
A|-----------------------------------------------------------------|
E|-----------------------------------------------------------------|

e|-------------------------------------------------------------------
B|--14h17p14--14-15-14b-----------12-------------------12------------
G|-------------------------------------14-------------------14-------
D|-----------------------14/15-15----15--15—--14/15-15----15—-15-----
A|-------------------------------------------------------------------
E|-------------------------------------------------------------------

---------------------|-----------------------------------------------
---------------------|---7h10p7---7h10p7---7h10p7---7h10p7---7h10p7--
---------------------|-9b-------9--------9--------9--------9--------9
--14b15r14-12-14--12-|-----------------------------------------------
----------------14---|-----------------------------------------------
---------------------|-----------------------------------------------

---------------------|---------------------------------------
---------------------|----7---7---7---7------------------------
--9b11r9-7-9---7h9-7-|-7h9-7h9-7h9-7h9---------------------------
-------------9-------|------------------------------------12-----
---------------------|-------------------12-14-16-12-14-16-----
---------------------|----------------------------------------

-----------------------------------------------|
-----------------------------------------------|
------------------------------15-----15-16-----|
------12-14--12-14-16-12-14-16--16-18----------|
-14-16—----16----------------------------------|
-----------------------------------------------|

|--------------------------------------------------------------------|
|--------------------------------------------------------------------|
|------16-----16-----16-----16-----16--18-16--16---------------------|
|-16h18--16h18--16h18--16h18-—16h18---------18--18-16-18-16—-16------|
|----------------------------------------------------------19--19-17-|
|--------------------------------------------------------------------|
Envía el tono de "Mil Demonios" a tu celular/móvil
Este fichero es trabajo propio de su transcriptor y representa su interpretación personal de la canción. El material contenido en esta página es
para exclusivo uso privado, por lo que se prohibe su reproducción o retransmisión, así como su uso para fines comerciales.
© LaCuerda.net · Aviso Legal · Privacidad