Tablatura para Bajo de Miel San Marcos: Yo Creo
Conexión · Inscripción
Letras y Acordes
Pantalla Completa
Imprimir
Versión Texto
Añadir Favorito
Otras Versiones

Mostrar Diagramas
Desfile Automático
Formato del Texto

Miel San Marcos
Yo Creo(BAJ)
calidad:
msmr0473
AUTOR: Josh, luis y Samuel Morales
ALBUM: Avivamiento (2010)
Enviado por pabloab0197
Que tal a todos, soy integrante (bajista) del grupo Generación Poder y gloria
hoy quería compartirles es bella canción de miel san marcos llamada
"yo creo" esta es la tablatura echa por mi así que si tiene algunos
errores disculpen

S:(Slide)

Intro:
E--8(s)--------------------5(8)----3(8)------------------------ 5(8)--3(8)--
A--------3(8)----8(6)-3-3-------------------3(6)-----8(6)-3-3---------------
D-----------------------------------------------5-5-------------------------
G---------------------------------------------------------------------------


C                    G/B
Creo en ti,  creo en todo lo que haces
        Dm7
Creo en lo que has hecho en mí
      F            Gsus4
Llegaste y me rescataste

C                    G/B
Creo en ti, aunque el sol se apagara
      Dm7                        F            Gsus4
Yo sé que tú eres mi luz,  sobre mi están tus alas
       Am                            F
Eres quien me da las fuerzas y ha creído siempre en mí
C/E             Dm                   G
    Aunque el mundo se acabara,  con todo yo diré


Coro


Yo creo....
E-------------3(8)-3-5---------------------7---7---------------
A--3(8)-5---------------5(8)-----7-7--8(4)---8------10(6)------
D--------------------------------------------------------------
G--------------------------------------------------------------

luego sigue el intro pero un poco diferente:

E-----------------------------5(6)----3(8)-------------
A-------3(6)-----8(6)-3-3------------------------------
D-----------5-5----------------------------------------
G------------------------------------------------------


       Am                            F
Eres quien me da las fuerzas y ha creído siempre en mí
C/E             Dm                   G
    Aunque el mundo se acabara,  con todo yo diré

luego otra ves
el coro

despues sigue el solo que es igual a la intro:
E-----------------------------5(8)----3(8)--------------
A-------3(6)-----8(6)-3-3-------------------------------
D-----------5-5-----------------------------------------
G-------------------------------------------------------


//Tu me levantaras\
E-----------------------------5(8)----3(8)--------------
A-------3(6)-----8(6)-3-3-------------------------------
D-----------5-5-----------------------------------------
G-------------------------------------------------------
luego hace una pequeña pausa
y entra de nuevo al coro

despues entra a:
//Tu me levantaras\
E-----------------------------5(6)----3(5)------------------------
A-------3(6)-----8(6)-3-3-------------------10-10-10-12-12-10-10--
D-----------5-5---------------------------------------------------
G-----------------------------------------------------------------


luego sigue el coro pero en adoración alli todos los instrumentos
se quedan en silencio
menos el piano

bueno eso ha sido todo Dios los bendiga a todos perdon si hay algun error
en la cancion, la cancion esta facil lo que tienen que hacer es poner
la cancion para guiarse Dios los bendiga
Envía el tono de "Yo Creo" a tu celular/móvil
Este fichero es trabajo propio de su transcriptor y representa su interpretación personal de la canción. El material contenido en esta página es
para exclusivo uso privado, por lo que se prohibe su reproducción o retransmisión, así como su uso para fines comerciales.
© LaCuerda.net · Aviso Legal · Privacidad