Tablatura para Guitarra de Miel San Marcos: Grande y fuerte
Conexión · Inscripción
Letras y Acordes
Pantalla Completa
Imprimir
Versión Texto
Añadir Favorito
Otras Versiones

Mostrar Diagramas
Desfile Automático
Manipular Acordes
Formato del Texto


Miel San Marcos
Grande y fuerte(TAB)
calidad:
msmr0285
AUTOR: Miel San Marcos  corregir
ALBUM: Dios es real (2008)
Enviado por jaime
DIOS les bendiga esta cancion es grande y fuerte

Am -F- E-- Am
INTRO
E)---------------------------------------------
B)---------------------------------------------
G)--------9-9-9--7-9-10-10-10-9-9-9------------
D)--7-7-7----------------------------10-10---7-
A)---------------------------------------------
E)---------------------------------------------
la parte donde dice vestido en majestad coronado con poder digno de toda la adoraciooon vestido en majestad coronado con poder toda gloria y honra sea para ti
E)------------------------------------------------------------------
B)--13-13-12-12-13-13--------13-13-12-12-13-12-12-13-13-15-15-17-17-
G)--------------------14-14-----------------------------------------
D)------------------------------------------------------------------
A)------------------------------------------------------------------
E)------------------------------------------------------------------
Am F E Am
Grande y fuerte es nuestro Dios (4x)
Dm G
Vestido en Majestad Coronado con poder
F G A
Digno de toda la adoración!
Dm G
Vestido en Majestad Coronado con poder
F G Am
Toda gloria y honra sean para Ti.
Am F
Grande! Fuerte! Es nuestro Dios! (2x) DIOS LES BENDIGA (MINISTERI JUDA) BUSQUENOS EN YOUTUBE como ministerio juda
Este fichero es trabajo propio de su transcriptor y representa su interpretación personal de la canción. El material contenido en esta página es
para exclusivo uso privado, por lo que se prohibe su reproducción o retransmisión, así como su uso para fines comerciales.

© LaCuerda.net · Aviso Legal · Privacidad