Tablatura para Guitarra de Marcos Witt: Tú Harás
Conexión · Inscripción
Letras y Acordes
Pantalla Completa
Imprimir
Versión Texto
Añadir Favorito
Otras Versiones

Mostrar Diagramas
Desfile Automático
Manipular Acordes
Formato del Texto


Marcos Witt
Tú Harás(TAB)
calidad:
mwit2855
AUTOR: Marcos Witt
ALBUM: Sobrenatural (2008)
Enviado por Jaider
  3:40 - 3:56   Música(Solo).  El solo esta lo mas exacto posible.

C F
E |-----------------------------------------------------------------|
B |-----------------------------------8-10~-8--10/12~-10-8-10/13bf--|
G |9~9-----9~9-----9s10s9-----9~9---9--------9----------------------|
D |---10~10---10~10------10~10---10---------------------------------|
A |-----------------------------------------------------------------|
E |-----------------------------------------------------------------|
G Am G
E |---------12bf-10b----12/15bf--13-12-12bf-15b-12b-----------------|
B |-10b-13b----------13-----------------------------15-13-15b~~-----|
G |-----------------------------------------------------------------|
D |-----------------------------------------------------------------|
A |-----------------------------------------------------------------|
E |-----------------------------------------------------------------|
Rapidisima esta parte Am Am/G E |----------------------------|----------------------------------------| B |-12-13-12-------------------|--13-12-13--13-12-13--13-12-13--13-12-13| G |----------14-12-------------|14--------14--------12--------12--------| D |----------------15-14-12-10-|----------------------------------------| A |----------------------------|----------------------------------------| E |----------------------------|----------------------------------------|
F G Demasiado rápido.
E |-----------------------|----------------------------------|
B |-------------9-8-11-9--|---------------8-10-8------8/13~~-|
G |--10-9-12-10-----------|-10-9-7-7-9-10--------10-9--------|
D |-----------------------|----------------------------------|
A |-----------------------|----------------------------------|
E |-----------------------|----------------------------------|
Este fichero es trabajo propio de su transcriptor y representa su interpretación personal de la canción. El material contenido en esta página es
para exclusivo uso privado, por lo que se prohibe su reproducción o retransmisión, así como su uso para fines comerciales.

© LaCuerda.net · Aviso Legal · Privacidad