Tablatura para Guitarra de Marcos Witt: En los montes, en los valles
Conexión · Inscripción
Letras y Acordes
Pantalla Completa
Imprimir
Versión Texto
Añadir Favorito
Otras Versiones

Mostrar Diagramas
Desfile Automático
Manipular Acordes
Formato del Texto


Marcos Witt
En los montes, en los valles(TAB)
calidad:
mwit2184
AUTOR: Emmanuel Espinoza y juan Salinas
ALBUM: Dios es Bueno (2005)
Enviado por samuel
INTRO:


1|---------------------------------|
2|----10----------10---------------|
3|-7------7----7-----7-------------|     <--X2
4|---------------------------------|
5|---------------------------------|
6|---------------------------------|


    Oh - Oh - Oh - Oh - Oh - Oh - Oh

1|-------------------------------------|
2|-------------------------------------|
3|-------------------------------------|   <----X4
4|-------------------------------------|
5|--5----------------------------------|
6|---------------------6-----------5---|



  En los montes, en los valles,  Exaltamos al que es digno de


  Alabanza.

  En las costas de los mares,  Levantamos un sonido de


  Esperanza.

  Aclamamos, aclamamos, Hacemos oír la voz de su

  alabanza.

 Con las manos en lo alto

 Exaltamos al que reina para siempre.

//Oh - Oh - Oh - Oh - Oh - Oh - Oh

Oh - Oh - Oh - Oh - Oh - Oh - Oh//





(ESTE ARPEGIO VA EN ESTA ESTROFA)


1|--------5--------------------------------5---------------|
2|-----6-------------3---------------5-----5---------------|
3|-----------------3---3-----------7---7---6---------------|
4|-----------------------------------------7---------------|
5|--5--------------------------5-----------7--12-10-8-7-5--|
6|---------------3-------------------------5---------------|
1|----------------------------------5---------|
2|-------5-----------------6--------5---------|
3|-----7---7-----3------------------6---------|
4|----------------------------------7---------|
5|--5----------------------5--------7---------|
6|---------------3------------------5---------|

Subamos a adorar en el monte de Sión,

Es el gozo de toda nación.

Donde la tristeza es gozo,

El llanto es alegría.

Dm A
Subamos a adorar al gran Rey. (REPITE TODO) INTRO 1|---------------------------------| 2|----10----------10---------------| 3|-7------7----7-----7-------------| <--X4 4|---------------------------------| 5|---------------------------------| 6|---------------------------------|
(A)
1|------------------------------------| 2|------------------------------------| 3|------------------------------------| <--X2 4|------------------------------------| 5|---5--5---3--5------3--5-5--3-------| 6|-----------------5-------------5----| (LA SEGUNDA GUITARRA SIGUE TOCANDO [A)] *solo* 1|---------------10----10----------------------------------------| 2|-------13^(15)----13^----13^---10--13--10----------------------| 3|--/12-----------------------------------13-12-10------10-12^---| 4|--------------------------------------------------12-----------| 5|---------------------------------------------------------------| 6|---------------------------------------------------------------| 1|-----------------------------------------------------------| 2|-10--13--10--13--10--13-10-13..---13/----------------------| 3|-----------------------------------------------------------| 4|-----------------------------------------------------------| 5|-----------------------------------------------------------| 6|-----------------------------------------------------------| //Oh - Oh - Oh - Oh - Oh - Oh - Oh Oh - Oh - Oh - Oh - Oh - Oh - Oh// (SIGUE ESTROFAS) //Oh - Oh - Oh - Oh - Oh - Oh - Oh Oh - Oh - Oh - Oh - Oh - Oh - Oh// QUE SEA DE GRAN AYUDA !!!DIOS LOS BENDIGA!!!
Este fichero es trabajo propio de su transcriptor y representa su interpretación personal de la canción. El material contenido en esta página es
para exclusivo uso privado, por lo que se prohibe su reproducción o retransmisión, así como su uso para fines comerciales.

© LaCuerda.net · Aviso Legal · Privacidad