Tablatura para Guitarra de Marco Barrientos: Hosanna
Conexión · Inscripción
Letras y Acordes
Pantalla Completa
Imprimir
Versión Texto
Añadir Favorito
Otras Versiones

Mostrar Diagramas
Desfile Automático
Manipular Acordes
Formato del Texto

Marco Barrientos
Hosanna(TAB)
calidad:
mbar1983
AUTOR: Julian Callazos
ALBUM: Avivanos (2008)
Enviado por Diego
Intro:

    Bm                   F#m7/A
 G|-------12-12-12-11-11-------11-11-11-9-9-|
 D|-9-9-9----------------7-7-7--------------|

    F#m7            Gmaj7
 G|-------9-9-9-7-7-----------------------|
 D|-7-7-7-----------9-9-9-11-11-11-12-12--|

   En la introducción, la guitarra eléctrica puede hacer los
   siguientes acordes:

            Bm               F#m7/A        F#m7 y Gmaj7

          B|-7-|             B|-10-|         e|-10-|
          G|-7-|             G|-9--|         B|-8--|
          D|-9-|             D|-7--|         G|-7--|


     Bm           F#m7/A
Verso: Levantamos un clamor
     F#m7            Gmaj7
       Por sanidad y redención

 B|-------------------------------7-|
 G|-----------------------------7---|
 D|---------------------------9-----|

     Bm              F#m7/A
       Muéstranos lo que Tú ves
     F#m7                 Gmaj7
       Los secretos de tu corazón
     Bm                F#m7/A
       Un pueblo unido pide hoy
     F#m7            Gmaj7
       Tu libertad y salvación

 B|-------------------------------7-|
 G|-----------------------------7---|
 D|---------------------------9-----|

     Bm            F#m7/A
       Ármanos con tu valor
     F#m7                   Gmaj7
       Lo que deseamos es revolución

         G                         A
Pre coro: Que el cielo se parta en dos
                G
          Inúndanos
                                A
          En el desierto broten ríos
                     Bm
          Vida sopla hoy

   Los acordes que toca la guitarra eléctrica en
   el pre coro pueden ser los siguientes:

            G                    A

         E|-7-|                e|-9-|
         B|---|                B|---|
         G|-7-|                G|-9-|
         D|-5-|                D|-7-|

                               D
Coro: Hosanna al rey de salvación
                            Em
      Hosanna al Dios altísimo

      Hosanna
      G           A             Bm
      Jesucristo, Jesucristo es rey

   En el coro, los acordes de la guitara eléctrica
   pueden ser los siguientes:

      Bm          D           Em          G         A

    e|-7-|     e|-10-|     e|-10-|     e|-7-|     E-9-|
    B|-7-|     B|-7--|     B|-8--|     B|---|     B---|
    G|-7-|     G|-7--|     G|-9--|     G|-7-|     G-9-|
    D|-9-|     D|-7--|     D|-9--|     D|-5-|     D-7-|

    Bm   F#m7/A   F#m7   Gmaj7
 B|-2-3--0-2-------------0-|
 G|-----------------2------|
 D|---------------4--------|

     Bm           F#m7/A
Verso: Levantamos un clamor
     F#m7            Gmaj7
       Por sanidad y redención

 e|---------------------------2/10-|

     Bm              F#m7/A
       Muéstranos lo que Tú ves

 e|-14/19-19-19-19-19-19-19-19-19-19-19-|

     F#m7                 Gmaj7
       Los secretos de tu corazón

 e|---19-19-19-19-19-19-19-19-19-19/21-|

     Bm                F#m7/A
       Un pueblo unido pide hoy
     F#m7            Gmaj7
       Tu libertad y salvación
     Bm            F#m7/A
       Ármanos con tu valor
     F#m7                   Gmaj7
       Lo que deseamos es revolución

Pre coro.

Coro.

Solo:

    G
 e|-9/12-12-12-12-12-12-12-12-9/10-10-10-10---------------|
 B|-----------------------------------------8/10-10-10-10-|

    A
 e|-9/12-12-12-12-12-12-12-12-9/10-10-10-10---------------|
 B|-----------------------------------------8/10-10-10-10-|

    G                           A
 e|-9/12-12-12-12-12-12-12-12-9/10-10-10-10---------------|
 B|-----------------------------------------8/10-10-10-10-|

       G/B                     A/C#
 e|-12/14-14-14-14-14-14-12-14-14b15r14-12----------|
 B|----------------------------------------15-15----|
 G|----------------------------------------------14-|

    G
 e|-12-12-12-10-10-10-------------------------------|
 B|-------------------14-14-14----------------------|
 G|----------------------------11-11-11-11-12-14-14-|

     A
 e|-12-12-12-10-10-10-9-9-9-10-10/12-12-12-12-|

             G                          A
 e|-10-12-12/14-14-14-14-14-14-12-14-14/17-17-17-17-17-17-|

              G/B                     A/C#
 e|-14-17-17/19-19-19-19-19-19-19-19-14b15r14-12----------|
 B|----------------------------------------------15-15----|
 G|----------------------------------------------------14-|
     G
 e|-14b15r14b15r14b15r14b15r14b15r14-|

       G
Puente: Hosanna
       A
        Hosanna
       G   A        G/B   A/C#
        Hosanna al rey

Coro.

   Aquí les dejo la transcripción, espero que les sirva.
   Con respecto a la introducción, cuando se tocan los acordes
   F#m7 y Gmaj7 LA guitarra eléctrica hace la misma figura.
   Bendiciones.
Envía el tono de "Hosanna" a tu celular/móvil
Este fichero es trabajo propio de su transcriptor y representa su interpretación personal de la canción. El material contenido en esta página es
para exclusivo uso privado, por lo que se prohibe su reproducción o retransmisión, así como su uso para fines comerciales.
© LaCuerda.net · Aviso Legal · Privacidad