Letra y Acordes de Marco Barrientos: Cree, todo es posible
Conexión · Inscripción
Letras y Acordes
Pantalla Completa
Imprimir
Versión Texto
Añadir Favorito
Otras Versiones

Mostrar Diagramas
Desfile Automático
Manipular Acordes
Formato del Texto


Marco Barrientos
Cree, todo es posible
calidad:
mbar1812
AUTOR: Marco Barrientos  corregir
ALBUM: Cree, todo es Posible
Enviado por Raul
sta tab incluye algunos arreglos del teclado.. pronto subire el
solo del teclado pro aun n lo e sacado completo..

la intro va asi:

e.---------------------------------
b.---------------------------------
g.--7-7---5-5---5-7-7---5-5---5---- sto va varias vecs..
d.------7-----7-------7-----7------
a.---------------------------------
e.---------------------------------

e.---------------------------------
b.---------------------------------
g.--7-7-7-7h8-5-5-7-7-7-7-7h8-5-7~-- sto es lo q hace el teclado en las
d.--------------------------------- strofas..
a.---------------------------------
e.---------------------------------

e.---------------------------------------------
b.-----8-7---------------------------------7---
g.-7h8-----7h8p7--------------------------8-7~--
d.---------------10-7h8p7----------7-8-10------
a.------------------------10-10-10-------------
e.---------------------------------------------

e.------------------------------------------
b.------------------------------------------
g.--5-7-5-7-5-7---------5-7-5-7-5-7---------
d.--------------8-7-5-7~-------------8-7-5~-
a.------------------------------------------
e.------------------------------------------

eso ultimo va 3 vecs y luego termina colocand la 5ta d D..
Este fichero es trabajo propio de su transcriptor y representa su interpretación personal de la canción. El material contenido en esta página es
para exclusivo uso privado, por lo que se prohibe su reproducción o retransmisión, así como su uso para fines comerciales.

© LaCuerda.net · Aviso Legal · Privacidad