Tablatura para Guitarra de Marco Antonio Solís: No hay nada más difícil
Conexión · Inscripción
Letras y Acordes
Pantalla Completa
Imprimir
Versión Texto
Añadir Favorito
Otras Versiones

Mostrar Diagramas
Desfile Automático
Manipular Acordes
Formato del Texto

Marco Antonio Solís
No hay nada más difícil(TAB)
calidad:
maso0131
AUTOR: Marco Antonio Solis
ALBUM: desconocido
Enviado por Julio
Buena rola del Buki mayor, la oi en la pelicula
y me gusto la manera en q la canto alguien...


****************INTRO************************

Gitarra 2
         Am               F              Am
Guitara 1
e--------------------------------------------|
B-------1-----------------------------1------|
G---0-2---2~----0*2-0--------------0-2---2~--|
D-2-------------------3-2-------2------------|
A-------------------------3~-----------------|
E--------------------------------------------|

Guitarra 2
            F            Am
Guitarra 1
e--------------------------------------------|
B--------------------------------------------|
G-0*2-0------------------0-2~----------------|
D-------3-2-----------2----------------------|
A-----------3~-------------------------------|
E--------------------------------------------|


**********VERSO*******************************

(Am)              F       G       C     E7  Am
te extraño más q nunca y no se q hacer

 Guitarra 1
e----------------------------------------|
B----------------------------------------|
G----------------------------------------|
D----5-5~--------------------------------|
A-/7-------------------------------------|
E----------------------------------------|

                  F        G     C Csus4-C
despierto y te recuerdo al amanecer

 Guitarra 1
e----------------------------------------|
B----------------------------------------|
G------------------/5^~----2^~-----------|
D----5-5~--------------------5^~---------|
A-/7-------------3-----------------------|
E----------------------------------------|


G                             C  E7
espera otro día por vivr sin ti
              Am
el espejo no miente
              F      G
me veo tan diferente
                C
me haces falta tu


 Guitarra 1
e----------------------------------------|
B----------------------------------------|
G----------------------------------------|
D----5-5~--------------------------------|
A-/7-------------------------------------|
E----------------------------------------|


E7-----Am
 

(Am)             F            G    C   E7  Am
la gente pasa y pasa siempre tan igual

 Guitarra 1
e----------------------------------------|
B----------------------------------------|
G----------------------------------------|
D----5-5~--------------------------------|
A-/7-------------------------------------|
E----------------------------------------|
                 F        G    C  Csus4-C
el ritmo de la vida me parece mal

 Guitarra 1
e----------------------------------------|
B----------------------------------------|
G------------------/5^~----2^~-----------|
D----5-5~--------------------5^~---------|
A-/7-------------3-----------------------|
E----------------------------------------|

G                                C   E7  Am
era tan diferente cuando estabas tu
F            G                     C  (C7)
si q era diferente cuando estabas tu



****************CORO*************************

G                                   C  Csus4-C
no hay nada más difícil q vivir sin ti
G                                   C  Csus4-C
sufriendo en la espera de verte llegar
G                                  C
el frio de mi cuerpo pregunta por ti
   E7          Am   F                 G
y no se donde estas, si no te hubieras ido 
             C   (C7)
seria tan feliz



G                                   C  Csus4-C
no hay nada más difícil q vivir sin ti
G                                   C  Csus4-C
sufriendo en la espera de verte llegar
G                                  C
el frio de mi cuerpo pregunta por ti
   E7          Am   F                 G
y no se donde estas, si no te hubieras ido 
             C
seria tan feliz


*****************VERSO**********************

E7--Am

(Am)             F            G    C   E7  Am
la gente pasa y pasa siempre tan igual

 Guitarra 1
e----------------------------------------|
B----------------------------------------|
G----------------------------------------|
D----5-5~--------------------------------|
A-/7-------------------------------------|
E----------------------------------------|
                 F        G    C  Csus4-C
el ritmo de la vida me parece mal

 Guitarra 1
e----------------------------------------|
B----------------------------------------|
G------------------/5^~----2^~-----------|
D----5-5~--------------------5^~---------|
A-/7-------------3-----------------------|
E----------------------------------------|

G                                C   E7  Am
era tan diferente cuando estabas tu
F            G                     C  (C7)
si q era diferente cuando estabas tu



*****************CORO***********************

G                                   C  Csus4-C
no hay nada más difícil q vivir sin ti
G                                   C  Csus4-C
sufriendo en la espera de verte llegar
G                                  C
el frio de mi cuerpo pregunta por ti
   E7          Am   F                 G
y no se donde estas, si no te hubieras ido 
             C   (C7)
seria tan feliz

G                                   C  Csus4-C
no hay nada más difícil q vivir sin ti
G                                   C  Csus4-C
sufriendo en la espera de verte llegar
FADE OUT


La guitarra dos va arpegiando cada corde de la 
siguiente manera


  Am       F      G      C     E7
e-----0-------1------3----------0-----------|
B---1-------1------3-------3------0---------|
G-2-------2------4-------3----------1-------|
D----------------------3--------------------|
A-----------------------------2-------------|
E-------------------------------------------|

Los solillos de la guitarra son después de la letra, 
echenle oido a la grabación ok? y vean la pelicula.. 
jajaja esta buena


Por favor si van a usar este archivo, en algún 
otro lugar, por favor avisenme, no sean 
*****gandallas******* jajaja

ya saben, dudas comentarios o sugerencias, mandenme 
un mail a jcd_007@hotmail.com  Si quieren usar mis 
tablaturas, por favor avisenme no sean gandallas
Envía el tono de "No hay nada más difícil" a tu celular/móvil
Este fichero es trabajo propio de su transcriptor y representa su interpretación personal de la canción. El material contenido en esta página es
para exclusivo uso privado, por lo que se prohibe su reproducción o retransmisión, así como su uso para fines comerciales.
© LaCuerda.net · Aviso Legal · Privacidad