Tablatura para Guitarra de Marcela Gandara: Un viaje largo
Conexión · Inscripción
Letras y Acordes
Pantalla Completa
Imprimir
Versión Texto
Añadir Favorito
Otras Versiones

Mostrar Diagramas
Desfile Automático
Manipular Acordes
Formato del Texto

Marcela Gandara
Un viaje largo(TAB)
calidad:
mgnd0052
AUTOR: Marcela Gandara
ALBUM: Más que un Anhelo (2006)
Enviado por david
Intro:
e--3-5-7-3-----7-8-10-5------3-2-0------3-2------------
b--5-5-7-5-----7-8-10-7------5-3-1-------------3-1-3---
g-------------------------------------------------------
d-------------------------------------------------------
a-------------------------------------------------------
E-------------------------------------------------------
Estrofa:
e------------------------------------0--0-2-3-------3------
b------------------------------------1--1-1-1-------0------
g------------------------------------0-----------0--0------
d------------------------------------2--------------0------
a------------------------------------3--3-3-3-------2------
E------------------------------------X--------------3------
     G                               C              G
Ha sido largo el viaje pero al fin llegue       la luz llego a

e-------------------0-0-2-3-------2---------------------
b-------------------1-1-1-1-------3---------------------
g-------------------0----------0--2---------------------
d-------------------2-------------0---------------------
a-------------------3-3-3-3-----------------------------
E-------------------X-----------------------------------
                    C             D
Mis ojos aunque lo dude        fueron muchos valles de
b--0-0-0-0-------
g--0-2-4-0-------
d--0-4-6-0-------
   Em                  D     Bm7
inseguridad los  que cruce, fueron muchos dias de tanto
e-----------------------------------0--------------0-----
b---0-0-0-0--------------------------3--------------3----
g---0-1-2-4------------------2----------2----------------
d---0-2-4-6--------------0-----------------0-------------
     Em                 D2
   Dudar, pero al fin llegue
e-------------0------0------3-----2------
b-------------1----------1--3-----3------
g-----------------0----------------------
d---------------------------0-----0------
a-------------3--------------------------
              C           Dsus4   D
llegue a entender         que   para
      G                 D                               Em
esta hora he llegado, para este tiempo naci, en sus propósitos
              C   C/D    G   C/G       G
eternos yo me vi, para esta hora he llegado,
                D
aunque me ha costado creer
     Em                    C   D/C   C
que entre sus planes para hoy me encontré
    G                               C       G
Y nunca imagine que dentro  de su amor, y dentro de sus planes me
            C   D                         Em             D
Encontrara yo fueron muchas veces que la timidez me lo impidió,
  Bm7                        Em                  D
Fueron muchos días de tanto dudar, pero al fin llegue
             C
Llegue a entender
Dsus4  D                  G                         D             Em
 Que  para esta hora he llegado, para este tiempo naci, en sus propósitos
              C    C/D        G   C/G  G                            D
eternos yo me vi, para esta hora he llegado, aunque me ha costado creer
                Em                   C
que entre sus planes para hoy me encontré  (se repite dos veces)
outro:
e--0-2-3-------2-3--------2-3-----------
b--3-3-3--1---3-3---0----3-3---0--------
g-----------0-----------0--------0------
d--0-0-0-------0-0--------0-0-----------
a-----------3--------------------3------
E-----------------------0---------------                           G
                             Ha sido largo el viaje pero al fin llegue
Envía el tono de "Un viaje largo" a tu celular/móvil
Este fichero es trabajo propio de su transcriptor y representa su interpretación personal de la canción. El material contenido en esta página es
para exclusivo uso privado, por lo que se prohibe su reproducción o retransmisión, así como su uso para fines comerciales.
© LaCuerda.net · Aviso Legal · Privacidad