Tablatura para Guitarra de Maná: Vuela libre paloma
Conexión · Inscripción
Letras y Acordes
Pantalla Completa
Imprimir
Versión Texto
Añadir Favorito
Otras Versiones

Mostrar Diagramas
Desfile Automático
Manipular Acordes
Formato del Texto

Maná
Vuela libre paloma(TAB)
calidad:
mana1253
AUTOR: Fher Olvera y Sergio Vallín
ALBUM: Drama y luz (2011)
Enviado por Giovanni
intro:(sonido del piano)
e--8-7-----5----
B-8-------6--8--
G-----9-------7-
D---------------
A---------------
E---------------

te fuiste a un viaje a las estrella te fuiste al cielo mi amor
e-----------8-7-8--
B-8--------8-----8-
G--7---------------
D------------------
A------------------
E------------------
te hiciste luz que ya destellas y yo aqui me quede con dolor
e-7------8/7----
B--8----8---8-5-
G---------------
D---------------
A---------------
E---------------
tu eres mi angel de la guarda que me cuida y que me aguarda
que esta dentro de mi
e------------
B---8-8-6/5--
G-4----------
D------------
A------------
E------------
tu eres angel eres rio y las flores el naranjo el ave que esta aqui

precoro:

no te olvido paloma me haces falta mi vida y algun dia yo te vere
e-3---3--1-------
B--1---0-----0-1--
G---------3-2---- (ustedes deben tocar estos riffs
D---------------- deben escuhar la cancion primero)
A----------------
E----------------
ya na lloro paloma ya no lloro mi vida gracias por tanto amoooor
e-3---3--1-----------
B--1---0----0-1-1/3--
G---------3----------
D--------------------
A--------------------
E--------------------

gracias a la vida por tenerte guerrero de la luz del amor
e-----------------
B----0-1---3-1-3--
G-0-----2---------
D---3------------- guitarra 1
A-----------------
E-----------------

e-3-1---1--3----
B---------------
G---------------guitarra 2
D---------------
A---------------
E---------------
tu cuerpo
ya no pudo sostenerse yo te voy a encontrar en cielo mi amooor
e-----------------------------------------
B----0-1--3-3-3-3-1-1-0-0-0-0-1-1-1-3/5---
G-0-----2----------------------------------
D---3------------------------------------ guitarra 1
A-----------------------------------------
E-----------------------------------------


e-3-3---1---------------------3-5-7-
B-----------------------------------
G-----------------------------------guitarra 2
D-----------------------------------
A-----------------------------------
E-----------------------------------

coro:
vuela vuela libre mi paloma,vuela vuela libre mi amor
e-0-0-0-0-0-0---0-0-0-0-0-0----0-0-0-0-0-----3-3-3-3-5-3-
B-1-1-1-1-1--1--1-1-1-1-1---1--1-1-1-1-1-3---3-3-3-3-----
G-2-2-2-2-2---2-2-2-2-2-2----2-0-0-0-0-0--0--4-4-4-4-----  guitarra 1
D-2-2-2-2-2-----3-3-3-3-3------2-2-2-2-2---2-5-5-5-5-----
A--------------------------------------------------------
E--------------------------------------------------------

e-8--8--8--8--8--8--8--8--8--8--8--8--8--8----
B-10-10-10-10-10-10-10-10-10-10-10-10-10-10---
G-9--9--9--9--9--9--9--10-10-10-10-10-10-10--- guitarra 2
D---------------------------------------------
A---------------------------------------------
E---------------------------------------------

e-8-8-8-8-8-8-8-7-7-7-7-5-5------------
B-8-8-8-8-8-8-8-8-8-8-8-8-8------------
G-9-9-9-9-9-9-9-7-7-7-7-7-7------------ guitarra 2
D--------------------------------------
A--------------------------------------
E--------------------------------------
tu luz y bendicion no me abandona si volviera a nacer
seria contigo amor
e-0-0-0-0-0-0---0-0-0-0-0-0----0-0-0-0-0-----3-3-3-3-5-3-
B-1-1-1-1-1--1--1-1-1-1-1---1--1-1-1-1-1-3---3-3-3-3-----
G-2-2-2-2-2---2-2-2-2-2-2----2-0-0-0-0-0--0--4-4-4-4-----  guitarra 1
D-2-2-2-2-2-----3-3-3-3-3------2-2-2-2-2---2-5-5-5-5-----
A--------------------------------------------------------
E--------------------------------------------------------

e-8--8--8--8--8--8--8--8--8--8--8--8--8--8----
B-10-10-10-10-10-10-10-10-10-10-10-10-10-10---
G-9--9--9--9--9--9--9--10-10-10-10-10-10-10--- guitarra 2
D---------------------------------------------
A---------------------------------------------
E---------------------------------------------

e-8-8-8-8-8-8-8-7-7-7-7-5-5------------
B-8-8-8-8-8-8-8-8-8-8-8-8-8------------
G-9-9-9-9-9-9-9-7-7-7-7-7-7------------ guitarra 2
D--------------------------------------
A--------------------------------------
E--------------------------------------
no lloro mi paloma ya no lloro no lloro pajarito mi amor
voy con la fe y con la esperanza por que te amo mi amor
y yo te voy a encontraaaaaaar
e-12-12-12-12-12-12-12-12-12-12-12-12-12-12-12----
B-13-13-13-13-13-13-13-13-13-13-13-13-13-13-13----
G-------------------------------------------------
D------------------------------------------------- guitarra 1
A-------------------------------------------------
E-------------------------------------------------

e-8-8-8-8-8-8-8-8-8-8-10-10-10-10-8-8-7-7-7-7-7-7-
B-8-8-8-8-8-8-8-8-8-8-12-12-12-12-8-8-8-8-8-8-8-8-
G------------------------------------------------- guitarra 1
D-------------------------------------------------
A-------------------------------------------------
E-------------------------------------------------

e-7-7-7-8-8-8-8-8-8-8-8-13-13-13-13-13-13-13-13-13-13-
B-8-8-8-8-8-8-8-8-8-8-8-13-13-13-13-13-13-13-13-13-13-
G----------------------------------------------------- guitarra
D----------------------------------------------------- 1
A-----------------------------------------------------
E-----------------------------------------------------

e-10-10-10-10-8-8-7-8-8-8-8-8-8-8-8-8-8-8---
B-12-12-12-12-8-8-8-8-8-8-8-8-8-8-8-8-8-8---
G------------------------------------------- guitarra 1
D-------------------------------------------
A-------------------------------------------
E-------------------------------------------

e------------------------------------------------
B-13-13-13-13-13-13-13-13-13-13-13-13-13-13-13---  guitarra 2
G-14-14-14-14-14-14-14-14-14-14-14-14-14-14-13--- (junto a la
D------------------------------------------------  guitarra 1 )
A------------------------------------------------
E------------------------------------------------

e-------------------------------------------------
B-8-8-8-8-8-8-8-8-8-8-12-12-12-12-8-8-8-8-8-8-8-8- guitarra 2
G-9-9-9-9-9-9-9-9-9-9-12-12-12-12-9-9-7-9-9-9-9-9-
D-------------------------------------------------
A-------------------------------------------------

e-----------------------------------------------------
B-8-8-8-8-8-8-8-8-8-8-8-13-13-13-13-13-13-13-13-13-13-
G-9-9-9-9-9-9-9-9-9-9-9-14-14-14-14-14-14-14-14-14-14- guitarra
D----------------------------------------------------- 2
A-----------------------------------------------------
E-----------------------------------------------------

e-----------------------------------------
B-12-12-12-12-8-8-8-8-8-8-8-8-8-8-8-8-8-8-
G-12-12-12-12-9-9-7-9-9-9-9-9-9-9-9-9-9-9- gutarra 2
D-----------------------------------------
A-----------------------------------------
E-----------------------------------------
intro:(punteo)
e--8-7-----5----------
B-8-------6--8-----8--
G-----9-------7-----7-
D---------------------
A---------------------
E---------------------

quisiera estar contigo en l playa y bailando despacito
tu mirada entrando en mi
e----------
B-----8-/5-
G-5/7------
D----------
A----------
E----------
te fuiste llego la rimavera que le digo a tus rosales que
le digo al colibri

precoro:

no te olvido paloma me haces falta mi vida y algun dia yo te vere
e-3---3--1-------
B--1---0-----0-1--
G---------3-2---- (ustedes deben tocar estos riffs
D---------------- deben escuhar la cancion primero)
A----------------
E----------------
tengo el corazon inundado corazon inunddado gracias por tanto
amooooooor
e-3---3--1-----------
B--1---0----0-1-1/3--
G---------3----------
D--------------------
A--------------------
E--------------------
tu eres mi faro en la tormenta que ilumina mis espacios de luz
e-----------------
B----0-1---3-1-3--
G-0-----2---------
D---3------------- guitarra 1
A-----------------
E-----------------

e-3-1---1--3----
B---------------
G---------------guitarra 2
D---------------
A---------------
E---------------
tu eres angel vida en el cielo mi amor yo te vy a encontraar
e-----------------------------------------
B----0-1--3-3-3-3-1-1-0-0-0-0-1-1-1-3/5---
G-0-----2----------------------------------
D---3------------------------------------ guitarra 1
A-----------------------------------------
E-----------------------------------------


e-3-3---1---------------------3-5-7-
B-----------------------------------
G-----------------------------------guitarra 2
D-----------------------------------
A-----------------------------------
E-----------------------------------

coro:
vuela vuela libre mi paloma,vuela vuela libre mi amor
e-0-0-0-0-0-0---0-0-0-0-0-0----0-0-0-0-0-----3-3-3-3-5-3-
B-1-1-1-1-1--1--1-1-1-1-1---1--1-1-1-1-1-3---3-3-3-3-----
G-2-2-2-2-2---2-2-2-2-2-2----2-0-0-0-0-0--0--4-4-4-4-----  guitarra 1
D-2-2-2-2-2-----3-3-3-3-3------2-2-2-2-2---2-5-5-5-5-----
A--------------------------------------------------------
E--------------------------------------------------------

e-8--8--8--8--8--8--8--8--8--8--8--8--8--8----
B-10-10-10-10-10-10-10-10-10-10-10-10-10-10---
G-9--9--9--9--9--9--9--10-10-10-10-10-10-10--- guitarra 2
D---------------------------------------------
A---------------------------------------------
E---------------------------------------------

e-8-8-8-8-8-8-8-7-7-7-7-5-5------------
B-8-8-8-8-8-8-8-8-8-8-8-8-8------------
G-9-9-9-9-9-9-9-7-7-7-7-7-7------------ guitarra 2
D--------------------------------------
A--------------------------------------
E--------------------------------------
tu luz y bendicion no me abandona si volviera a nacer
seria contigo amor
e-0-0-0-0-0-0---0-0-0-0-0-0----0-0-0-0-0-----3-3-3-3-5-3-
B-1-1-1-1-1--1--1-1-1-1-1---1--1-1-1-1-1-3---3-3-3-3-----
G-2-2-2-2-2---2-2-2-2-2-2----2-0-0-0-0-0--0--4-4-4-4-----  guitarra 1
D-2-2-2-2-2-----3-3-3-3-3------2-2-2-2-2---2-5-5-5-5-----
A--------------------------------------------------------
E--------------------------------------------------------

e-8--8--8--8--8--8--8--8--8--8--8--8--8--8----
B-10-10-10-10-10-10-10-10-10-10-10-10-10-10---
G-9--9--9--9--9--9--9--10-10-10-10-10-10-10--- guitarra 2
D---------------------------------------------
A---------------------------------------------
E---------------------------------------------

e-8-8-8-8-8-8-8-7-7-7-7-5-5------------
B-8-8-8-8-8-8-8-8-8-8-8-8-8------------
G-9-9-9-9-9-9-9-7-7-7-7-7-7------------ guitarra 2
D--------------------------------------
A--------------------------------------
E--------------------------------------
no lloro mi paloma ya no lloro no lloro pajarito mi amor
voy con la fe y con la esperanza por que te amo mi amor
y yo te voy a encontraaaaaaar
e-12-12-12-12-12-12-12-12-12-12-12-12-12-12-12----
B-13-13-13-13-13-13-13-13-13-13-13-13-13-13-13----
G-------------------------------------------------
D------------------------------------------------- guitarra 1
A-------------------------------------------------
E-------------------------------------------------

e-8-8-8-8-8-8-8-8-8-8-10-10-10-10-8-8-7-7-7-7-7-7-
B-8-8-8-8-8-8-8-8-8-8-12-12-12-12-8-8-8-8-8-8-8-8-
G------------------------------------------------- guitarra 1
D-------------------------------------------------
A-------------------------------------------------
E-------------------------------------------------

e-7-7-7-8-8-8-8-8-8-8-8-13-13-13-13-13-13-13-13-13-13-
B-8-8-8-8-8-8-8-8-8-8-8-13-13-13-13-13-13-13-13-13-13-
G----------------------------------------------------- guitarra
D----------------------------------------------------- 1
A-----------------------------------------------------
E-----------------------------------------------------

e-10-10-10-10-8-8-7-8-8-8-8-8-8-8-8-8-8-8---
B-12-12-12-12-8-8-8-8-8-8-8-8-8-8-8-8-8-8---
G------------------------------------------- guitarra 1
D-------------------------------------------
A-------------------------------------------
E-------------------------------------------

e------------------------------------------------
B-13-13-13-13-13-13-13-13-13-13-13-13-13-13-13---  guitarra 2
G-14-14-14-14-14-14-14-14-14-14-14-14-14-14-13--- (junto a la
D------------------------------------------------  guitarra 1 )
A------------------------------------------------
E------------------------------------------------

e-------------------------------------------------
B-8-8-8-8-8-8-8-8-8-8-12-12-12-12-8-8-8-8-8-8-8-8- guitarra 2
G-9-9-9-9-9-9-9-9-9-9-12-12-12-12-9-9-7-9-9-9-9-9-
D-------------------------------------------------
A-------------------------------------------------

e-----------------------------------------------------
B-8-8-8-8-8-8-8-8-8-8-8-13-13-13-13-13-13-13-13-13-13-
G-9-9-9-9-9-9-9-9-9-9-9-14-14-14-14-14-14-14-14-14-14- guitarra
D----------------------------------------------------- 2
A-----------------------------------------------------
E-----------------------------------------------------

e-----------------------------------------
B-12-12-12-12-8-8-8-8-8-8-8-8-8-8-8-8-8-8-
G-12-12-12-12-9-9-7-9-9-9-9-9-9-9-9-9-9-9- gutarra 2
D-----------------------------------------
A-----------------------------------------
E-----------------------------------------

solo: piano (entra guitarra acustica)

C Am C G (X3)
C Am F G C
Envía el tono de "Vuela libre paloma" a tu celular/móvil
Este fichero es trabajo propio de su transcriptor y representa su interpretación personal de la canción. El material contenido en esta página es
para exclusivo uso privado, por lo que se prohibe su reproducción o retransmisión, así como su uso para fines comerciales.
© LaCuerda.net · Aviso Legal · Privacidad