Tablatura para Guitarra de Maná: Tu tienes lo que quiero
Conexión · Inscripción
Letras y Acordes
Pantalla Completa
Imprimir
Versión Texto
Añadir Favorito
Otras Versiones

Mostrar Diagramas
Desfile Automático
Manipular Acordes
Formato del Texto

Maná
Tu tienes lo que quiero(TAB)
calidad:
mana0644
AUTOR: Alex González
ALBUM: Sueños Liquidos (98)
Enviado por Luis
A pedido del público...

INTRO
e|---------------------------------- 
B|----------------------------------
G|---4-5-----0-2----2---5-5-4-4-4-2- 
D|-2-------------0.---0------------- 
A|-------3-3------------------------
E|----------------------------------

e|---------------------------------- 
B|----------------------------------
G|---4-5-----0-2----2-------4-5-4-2- 
D|-2-------------0.---0-2-2--------- 
A|-------3-3------------------------
E|----------------------------------


SOLO
e|-------10-12-------10----------10---------------------------|  
B|-12-13----------12----12-10-10----10-12-13-12-12-10-12-10.--|
G|-------------12---------------------------------------------|  
D|------------------------------------------------------------|  
A|------------------------------------------------------------|
E|------------------------------------------------------------|

e|----------------10-----12-10--10-12.----------------------10------------|  
B|---------------------12-----10--------------10-12-13-12-10—-13-12-10-12.|
G|-12-12-11-11-9-9---12----------------9-11-12----------------------------|  
D|------------------------------------------------------------------------|  
A|------------------------------------------------------------------------|
E|------------------------------------------------------------------------|

e|----------------------------------------------------------------|  
B|----------------------------------------------------------------|
G|---------9.---------9.---------9--12-12-11-11-9-9---------------|  
D|-9-10-12----9-10-12----9-10-12--------------------12-12-9-10..--|  
A|----------------------------------------------------------------|
E|----------------------------------------------------------------|


FINAL
e|--------------------------------------------|  
B|-----8-8---8-8---8-8--11-11-11-11-11..-7----|
G|-7-9-----9-----9-------------------------9--|  
D|--------------------------------------------|  
A|--------------------------------------------|
E|--------------------------------------------|

e|-11/12-12-12-12..- 11/12-12-12-12.----------------|  
B|-----------------------------------12-12-12-12..--|
G|--------------------------------------------------|  
D|--------------------------------------------------|  
A|--------------------------------------------------|
E|--------------------------------------------------|

e|-----------------------------------------------------------|  
B|-----8----10-8-------8-10-8-------8---8-8--11-11-11..-9----|
G|-7-9---9-------7-7-9----------7-9---9-------------------9--|  
D|-----------------------------------------------------------|  
A|-----------------------------------------------------------|
E|-----------------------------------------------------------|
Envía el tono de "Tu tienes lo que quiero" a tu celular/móvil
Este fichero es trabajo propio de su transcriptor y representa su interpretación personal de la canción. El material contenido en esta página es
para exclusivo uso privado, por lo que se prohibe su reproducción o retransmisión, así como su uso para fines comerciales.
© LaCuerda.net · Aviso Legal · Privacidad