Letra y Acordes de Maná: No ha parado de llover
Conexión · Inscripción
Letras y Acordes
Pantalla Completa
Imprimir
Versión Texto
Añadir Favorito
Otras Versiones

Mostrar Diagramas
Desfile Automático
Manipular Acordes
Formato del Texto

Maná
No ha parado de llover
calidad:
mana0483
AUTOR: Por Fher, Alex González
ALBUM: Lo Escencial de Mana (1995)
Enviado por leandro
"no ha parado de llover" ES LA SIGUIENTE CANCIÓN QUE ME TOCA
ENVIAR A ESTA PAGINA QUE ESTA RE BUENA ASI QUE VA ESTAR
"completa" OK:
============================COMIENZO===========================
INTRO:
1.-----------------------------------0---2---0----|
2.----3---3---3---3---3------3---3----------------|
3.--2---2---2---2---2------2---2---2---2---2------|
4.------------------------------------------------|
5.------------------------------------------------|
6.------------------------------------------------|
                                                     (X2)
1.----2---2---3---3---3------2---2---0---5--------|
2.--3---3---3---3---3------3---3---3---3----------|
3.------------------------------------------------|
4.------------------------------------------------|
5.------------------------------------------------|
6.------------------------------------------------|

VERSOS:
  D             A
Desde que te perdi
1.------------|
2.------------|
3.------------|
4.------------|
5.-0-2-4-0-2--|
6.------------|
Bm               G            D    A
   la luz se ha puesto muy mojada
1.------------|
2.------------|
3.------------|
4.------------|
5.-0-2-4-0-2--|
6.------------|
Bm          G          D       A
   mirada triste esta nublada
1.------------|
2.------------|
3.------------|
4.------------|
5.-0-2-4-0-2--|
6.------------|
         Bm          G            D
y en mis ojos no ha parado de llover.
1.-----------------------------------0---2---0----|
2.----3---3---3---3---3------3---3----------------|
3.--2---2---2---2---2------2---2---2---2---2------|
4.------------------------------------------------|
5.------------------------------------------------|
6.------------------------------------------------|


D           A
Solo ya sin ti
1.------------|
2.------------|
3.------------|
4.------------|
5.-0-2-4-0-2--|
6.------------|
Bm           G               D   A
  me tienes como un perro herido
1.------------|
2.------------|
3.------------|
4.------------|
5.-0-2-4-0-2--|
6.------------|

Bm           G                  D    A
  me tienes como un ave sin su nido
1.------------|
2.------------|
3.------------|
4.------------|
5.-0-2-4-0-2--|
6.------------|
     Bm           G           D
estoy solo como arena sin su mar.
1.-----------------------------------0---2---0----|
2.----3---3---3---3---3------3---3----------------|
3.--2---2---2---2---2------2---2---2---2---2------|
4.------------------------------------------------|
5.------------------------------------------------|
6.------------------------------------------------|

PRECORO:
Bm             G                A
  Quien detendra la lluvia en mi
F#m    Bm   G              D           A
oh no no,    se me ha inundado el corazon
Bm             G               A
  quien detendra la lluvia en mi
F#m     G               A        D
oh mi amor, solo tu puedes pararla.

CORO:
(MIENTRAS SE HACE EL CORO LA GUITARRA HACE ESTO)
1.-----------------------------------0---2---0----|
2.----3---3---3---3---3------3---3----------------|
3.--2---2---2---2---2------2---2---2---2---2------|
4.------------------------------------------------|
5.------------------------------------------------|
6.------------------------------------------------|

1.----2---2---3---3---3------2---2---0---5--------|
2.--3---3---3---3---3------3---3---3---3----------|
3.------------------------------------------------|
4.------------------------------------------------|
5.------------------------------------------------|
6.------------------------------------------------|
D        A
Sigue lloviendo,
                          Bm   G
le sigue lloviendo al corazon
           D              A
dime que diablos voy a hacer
D
Sigue lloviendo
                           Bm
le sigue lloviendo al corazon
       G          D
oh no no, y en mis ojos
         A          D
no ha parado de llover.


D            A
  No te comprendo
1.------------|
2.------------|
3.------------|
4.------------|
5.-0-2-4-0-2--|
6.------------|
      Bm           G
no entiendo que paso
D         A
si te di todo,
1.------------|
2.------------|
3.------------|
4.------------|
5.-0-2-4-0-2--|
6.------------|
Bm          G
quiza te di de mas.

       D       A        Bm
Dime que falto, dime que sobro
G       D      A           Bm
 dime que paso, pero dime algo
  G               D
pues me estoy muriendo.
1.-----------------------------------0---2---0----|
2.----3---3---3---3---3------3---3----------------|
3.--2---2---2---2---2------2---2---2---2---2------|
4.------------------------------------------------|
5.------------------------------------------------|
6.------------------------------------------------|

PRECORO:
Bm             G                A
  Quien detendra la lluvia en mi
F#m    Bm   G              D           A
oh no no,    se me ha inundado el corazon
Bm             G               A
  quien detendra la lluvia en mi
F#m     G               A        D
oh mi amor, solo tu puedes pararla.

CORO:
1.-----------------------------------0---2---0----|
2.----3---3---3---3---3------3---3----------------|
3.--2---2---2---2---2------2---2---2---2---2------|
4.------------------------------------------------|
5.------------------------------------------------|
6.------------------------------------------------|

1.----2---2---3---3---3------2---2---0---5--------|
2.--3---3---3---3---3------3---3---3---3----------|
3.------------------------------------------------|
4.------------------------------------------------|
5.------------------------------------------------|
6.------------------------------------------------|
D        A
Sigue lloviendo,
                          Bm   G
le sigue lloviendo al corazon
           D              A
dime que diablos voy a hacer
D
Sigue lloviendo
                           Bm
le sigue lloviendo al corazon
       G          D
oh no no, y en mis ojos
         A          D
no ha parado de llover.

(AHORA LA GUITARRA EN PIEZA A RASGUEAR LO SIGUIENTES ACORDES)
 (G G G G G D G D G D G)
(ALOS ACORDES ANTERIORES LA GUITARRA LOS HACE EN FORMA DE
  "quintas")

CORO:
1.-----------------------------------0---2---0----|
2.----3---3---3---3---3------3---3----------------|
3.--2---2---2---2---2------2---2---2---2---2------|
4.------------------------------------------------|
5.------------------------------------------------|
6.------------------------------------------------|

1.----2---2---3---3---3------2---2---0---5--------|
2.--3---3---3---3---3------3---3---3---3----------|
3.------------------------------------------------|
4.------------------------------------------------|
5.------------------------------------------------|
6.------------------------------------------------|
D        A
Sigue lloviendo,
                          Bm   G
le sigue lloviendo al corazon
           D              A
dime que diablos voy a hacer
D
Sigue lloviendo
                           Bm
le sigue lloviendo al corazon
       G          D
oh no no, y en mis ojos
         A          D
no ha parado de llover.

 ( con los acordes del coro)
Le suigue lloviendo le sigue lloviendo
al corazón y en mis ojos no ha parado de llover.
==============================FIN==============================
BUENO AMIGOS YA ESTA "completa" OK practiquen" CHAÚ.

 LEANDRO_TRANSCRIPCIONES@HOTMAIL.COM  20/01/06  18:44hs
CHAÚ!!!!!!!!
Envía el tono de "No ha parado de llover" a tu celular/móvil
Este fichero es trabajo propio de su transcriptor y representa su interpretación personal de la canción. El material contenido en esta página es
para exclusivo uso privado, por lo que se prohibe su reproducción o retransmisión, así como su uso para fines comerciales.
© LaCuerda.net · Aviso Legal · Privacidad