Tablatura para Guitarra de Maná: Hundido en un Rincón
Conexión · Inscripción
Letras y Acordes
Pantalla Completa
Imprimir
Versión Texto
Añadir Favorito
Otras Versiones

Mostrar Diagramas
Desfile Automático
Manipular Acordes
Formato del Texto

Maná
Hundido en un Rincón(TAB)
calidad:
mana0385
AUTOR: Fehr
ALBUM: Cuando Los Angeles Lloran (1995)
Enviado por LUIS
INTRO: 
 F#m         E        D        E        F#m       E       D       E 
 e----5-4----------------------------------5-4--------------------------------
B--------7------5-5-5-5-7---------------------7-----5-5-5-5------------------
G-6--------6-4------------7-6--6-4----4-6-------6-4-------------7-6-4---4----
D-----------------------------------7-----------------------7-7-------7------
A----------------------------------------------------------------------------
E----------------------------------------------------------------------------



VERSO 1:
  F#m                 E                    D                    E
     TE  ESCRIBO  EN  UN  RINCON              EN   DONDE    SIEMPRE ME HAS   
e----------------------------------------------------------------------------
B----------------------------------------------------------------------------
G-6--------------------------------------------------------------------------
D----------------------------------------------------------------------------
A----------------------------------------------------------------------------
E----------------------------------------------------------------------------



  F#m                 E                    D                    E
TE-NI-DO                          EN  SOLEDAD
e----------------------------------------------------------------------------
B---------------5--7--7-------------------------------------5-7-7-5----------
G------------7--------------------------------------------7---------4-2-4/---
D----------------------------------------------------------------------------
A----------------------------------------------------------------------------
E----------------------------------------------------------------------------



  F#m                 E                    D                    E
         HUNDIDO  EN  UN  RINCON                       ENTRE   POLVO  Y  EL
e----------------------------------------------------------------------------
B----------------------------------------------------------------------------
G-/(6)-----------------------------------------------------------------------
D----------------------------------------------------------------------------
A----------------------------------------------------------------------------
E----------------------------------------------------------------------------



  F#m                 E                    D                    E
OLVIDO          
e--------5--5--5---5--5--4-----4--4--5--7------------------------------------
B------------------------------------------7--------7--7--7---7\5-5-5\3-3----
G----------------------------------------------------------------------------
D----------------------------------------------------------------------------
A----------------------------------------------------------------------------
E----------------------------------------------------------------------------


PRE-CORO:
  A                   E                    Bm                   E
      TE DEJO         ESTA CARTA                    BUSCANDO   FIN A ESTE 
e-5--------5-------5--4-------4-------4----7--------7--------7--7-----7-----7
B----5--------5----------5-------5------------7--------7----------7-----7----
G(2)----6--------6---6------4-------4----4-------7--------7----7----9-----9--
D----------------------------------------------------------------------------
A----------------------------------------------------------------------------
E----------------------------------------------------------------------------



                                                                C/FILL 1
  A                   E                    Bm                   E
DOLOR                 OHHHH________
e-5--------5-------5--4-------4-------4----7--------7--------7--7-----7-----7
B----5--------5----------5-------5------------7--------7----------7-----7----
G9------6--------6---6------4-------4----4-------7--------7----7----9-----9--
D----------------------------------------------------------------------------
A----------------------------------------------------------------------------
E----------------------------------------------------------------------------  



  A                   E                    Bm                   E
        SIENTO     QUE__ESTOY   MURIENDO                 PERO   NO   PODIA 
e-5--------5-------5--4-------4-------4----7--------7--------7--7-----7-----7
B----5--------5----------5-------5------------7--------7----------7-----7----
G9------6--------6---6------4-------4----4-------7--------7----7----9-----9--
D----------------------------------------------------------------------------
A----------------------------------------------------------------------------
E----------------------------------------------------------------------------

  A                   E                    Bm                   E
VIVIR                               MAS   ASI
e-5--------5-------5--4-------4-------4----7-------7-------7----7-----7-----7
B----5--------5----------5-------5------------7-------7-----------7-----7----
G9------6--------6---6------4-------4----4-------7-------7----7-----9-----9--
D----------------------------------------------------------------------------
A----------------------------------------------------------------------------
E----------------------------------------------------------------------------

  

  



F#m                 E                    D                    E
      TE ESCRIBO  EN  UN RINCON                               
e-2--------5--4-------0----------2-4-5-7---2--------------------0------------
B-2--------------7----0--------------------3--------------------0------------
G-2-----------------6-1(4)-----------------2-----------7-6-4---(1)4/6^^^------
D-4-------------------2--------------------0-----------------7--2------------
A-4-------------------2-----------------------------------------2------------
E-2-------------------0-----------------------------------------0------------


CORO:
  A                   E                    Bm                   E
  AY______                        POBRE DE MI
e------------------------------------------7---------------------------------
B------------------------------------------7---------------------------------
G-6-------------------9--------------------7--------------------9------------
D-7-------------------9--------------------9--------------------9------------
A-7-------------------7--------------------9--------------------7------------
E-5----------------------------------------7---------------------------------


  A                   E                    F#m                   E
SOLO                          EN UN RINCON
e----------------------------------------------------------------------------
B-------------------------------------------------------10-------------------
G-6-------------------9--------------------11-----11-------11----9-4br-2-----
D-7-------------------9--------------------11--11----11-------11-9-------4-2-
A-7-------------------7--------------------9---------------------7-----------
E-5--------------------------------------------------------------------------






  A                   E                    Bm                   E
AY______                        POBRE DE MI____
e------------------------------------------7---------------------------------
B------------------------------------------7---------------------------------
G-6-------------------9--------------------7--------------------9------------
D-7-------------------9--------------------9--------------------9------------
A-7-------------------7--------------------9--------------------7------------
E-5----------------------------------------7---------------------------------


  A                   E                    F#m                   E
SOLO                             EL CORAZON___                HUNDIDO EN UN
e----------------------------------------------------------------------------
B-------------------------------------------------------10-------------------
G-6-------------------9--------------------11-----11-------11----9-----------
D-7-------------------9--------------------11--11----11-------11-9-----------
A-7-------------------7--------------------9---------------------7-----------
E-5--------------------------------------------------------------------------
 
 F#m         E        D        E        F#m       E       D       E 
__RINCON
e----5-4----------------------------------5-4--------------------------------
B--------7----------5-5-7---------------------7---------5-5------------------
G-6--------6-4------------7-6--6-4----4-6-------6-4-------------7-6-4---4----
D-----------------------------------7-----------------------7-7-------7------
A----------------------------------------------------------------------------
E----------------------------------------------------------------------------








VERSO 2:
  F#m                 E                    D                    E
          TE  FUISTE  ESCURRIENDO                 ENTRE  MIS   MA--NOS  Y MIS
e----------------------------------------------------------------------------
B----------------------------------------------------------------------------
G-6--------------------------------------------------------------------------
D----------------------------------------------------------------------------
A----------------------------------------------------------------------------
E----------------------------------------------------------------------------



  F#m                 E                    D                    E
 SUEÑOS                            Y  LOS  AÑOS                   MUCHOS AÑOS 
e-------------4-5------------------------------------------------------------
B-----------------7----------------------------------------------------------
G-------------------6-4------------------------------------------------------
D----------------------------------------------------------------------------
A----------------------------------------------------------------------------
E----------------------------------------------------------------------------
  F#m                 E                    D                    E
  QUE  ME    TUVISTE           QUE  ME  DEJASTE              HUNDIDO  EN SOLE-
e-------------9-7-5-4--------------------------------------------------------
B---------------------5------------------------------------------------------
G-/(6)-----------------------------------------------------------------------
D----------------------------------------------------------------------------
A----------------------------------------------------------------------------
E----------------------------------------------------------------------------








  F#m                 E                    D                    E
LEDAD          
e-------------9-7-5-4--------------------------------------------------------
B---------------------5------------------------------------------------------
G----------------------------------------------------------------------------
D----------------------------------------------------------------------------
A----------------------------------------------------------------------------
E----------------------------------------------------------------------------

PRE-CORO:
  A                   E                    Bm                   E
          SIENTO  EL  AIRE  ESPESO                        YA NI PODIA RESPI-
e-5--------5-------5--4-------4-------4----7--------7--------7--7-----7-----7
B----5--------5----------5-------5------------7--------7----------7-----7----
G(2)----6--------6---6------4-------4----4-------7--------7----7----9-----9--
D----------------------------------------------------------------------------
A----------------------------------------------------------------------------
E----------------------------------------------------------------------------


                                                                C/FILL 1
  A                   E                    Bm                   E
RAR                   OHHHH________
e-5--------5-------5--4-------4-------4----7--------7--------7--7-----7-----7
B----5--------5----------5-------5------------7--------7----------7-----7----
G9------6--------6---6------4-------4----4-------7--------7----7----9-----9--
D----------------------------------------------------------------------------
A----------------------------------------------------------------------------
E----------------------------------------------------------------------------  





  A                   E                    Bm                   E
          ME  DUELES  HASTA  EL HUESO              MIENTRAS  INTENTO ESTA CAN   
e-5--------5-------5--4-------4-------4----7--------7--------7--7-----7-----7
B----5--------5----------5-------5------------7--------7----------7-----7----
G9------6--------6---6------4-------4----4-------7--------7----7----9-----9--
D----------------------------------------------------------------------------
A----------------------------------------------------------------------------
E----------------------------------------------------------------------------


  A                   C#7                  F#m                  
CION               HUNDIDO  EN  UN  RINCON                       D       
e-5--------5-------5--4-------4-------4----2-------2-------2-----2-2-2--2-2-2
B----5--------5----------6-------6------------2-------2----------3-3-3--3-3-3
G9------6--------6---6------4-------4----4-------2-------2----2--2-2-2--2-2-2
D----------------------------------------------------------------0-0-0--0-0-0
A----------------------------------------------------------------------------
E----------------------------------------------------------------------------

CORO:
  A                   E                    Bm                   E
  AY______                        POBRE DE MI
e------------------------------------------7---------------------------------
B------------------------------------------7---------------------------------
G-6-------------------9--------------------7--------------------9------------
D-7-------------------9--------------------9--------------------9------------
A-7-------------------7--------------------9--------------------7------------
E-5----------------------------------------7---------------------------------







  A                   E                    F#m                   E
SOLO                          EN UN RINCON
e----------------------------------------------------------------------------
B-------------------------------------------------------10-------------------
G-6-------------------9--------------------11-----11-------11----9-4br-2-----
D-7-------------------9--------------------11--11----11-------11-9-------4-2-
A-7-------------------7--------------------9---------------------7-----------
E-5--------------------------------------------------------------------------


  A                   E                    Bm                   E
AY______                        POBRE DE MI____
e------------------------------------------7---------------------------------
B------------------------------------------7---------------------------------
G-6-------------------9--------------------7--------------------9------------
D-7-------------------9--------------------9--------------------9------------
A-7-------------------7--------------------9--------------------7------------
E-5----------------------------------------7---------------------------------


  A                   E                    F#m                   E
SOLO______                        EL CORAZON___                
e----------------------------------------------------------------------------
B-------------------------------------------------------10-------------------
G-6-------------------9--------------------11-----11-------11----9-----------
D-7-------------------9--------------------11--11----11-------11-9-----------
A-7-------------------7--------------------9---------------------7-----------
E-5--------------------------------------------------------------------------







INTERLUDIO: 
  D             E                  F#m    C#m           E        A-E  A-E
     Y HUNDIDO    Y AHOGADO EL CORAZON     EN UN RINCON
e----------------------------------------------------------------------------
B----------------------------------10--10-9~~~~---------9--------------------
G-7------------------------9-------------------------------------2----2------
D-7------------------------9-------------------------------------2-2--2-2----
A-5------------------------7-------------------------------------0-2--0-2----
E------------------------------------------------------------------0----0----


  D             E                  F#m    C#m          E        (E)
     Y HUNDIDO    Y AHOGADO EL CORAZON     EN UN RINCON
e----------------------------------------------------------------------------
B----------------------------------10--10-9~~~~--------9--9-12-10-9----------
G-7------------------------9---------------------------------------9-------10
D-7------------------------9----------------------------------------11-9-9---
A-5------------------------7-------------------------------------------------
E----------------------------------------------------------------------------

 

  A                   E                    Bm                   E
  AY______                              DE MI
e-5--------5-------5--4-------4-------4----7--------7--------7--7-----7-----7
B----5--------5----------5-------5------------7--------7----------7-----7----
G9------6--------6---6------4-------4----4-------7--------7----7----9-----9--
D-(11)~~~~~~~~~~~~(11)\------------------------------------------------------
A----------------------------------------------------------------------------
E----------------------------------------------------------------------------





  A                   E                    F#m                E
SOLO                              YO  A      TI            HUNDIDO EN UN RIN-
e-5--------5-------5--4-------4-------4----2-------2-------2--7-----7-----7--
B----5--------5----------5-------5------------2-------2---------7-----7------
G-------6--------6---6------4-------4----4-------2-------2---2----7-----7---7
D----------------------------------------------------------------------------
A----------------------------------------------------------------------------
E----------------------------------------------------------------------------

F#m          E        D        E        F#m       E            D           E 
CON
e----5-4----------------------------------5-4--------------------------------
B--------7----------5-5-7---------------------7------0h2h3p2p0---0h2h3p2p0---
G-6--------6-4------------7-6--6-4----4-6-------6-4------------2-----------1-
D-----------------------------------7----------------------------------------
A----------------------------------------------------------------------------
E----------------------------------------------------------------------------



   F#m                E                     D                 E

e----------------------------------------------------------------------------
B----------------------------------------------------------------------------
G----------------------------------------------------16b--r------------------
D--------------14------------------16p14-------------------------------------
A-16p14-16--------16~~~(16)p14-16--------16p14-14\12-------------------------
E----------------------------------------------------------------------------







   F#m                E                     D                  C#m 

e------------14--14h17p14----14-14--------14--14h17p14----14-14--------14-14h
B---------14--------------17-----------14--------------17-----------14-------
G------16b--------------------------16b--------------------------16b---------
D----------------------------------------------------------------------------
A----------------------------------------------------------------------------
E----------------------------------------------------------------------------

   F#m                E                     D                  E

e-17p14----14----------------------------------------------------------------
B-------17----17-14-17-14----14----------------------------------------------
G-------------------------16----16-14-16-14----------------------------------
D-------------------------------------------16~~~~~~-------------------------
A----------------------------------------------------------------------------
E----------------------------------------------------------------------------

   F#m                E                     D                  C#m

e----------------------------------------------------------------------------
B----------------------------------------------------------------------------
G----------------------------------------------------------------------------
D----------------------------------------------------------------------------
A----------------------------------------------------------------------------
E----------------------------------------------------------------------------


SI ALGUIEN TIENE MAS TABS DE MANA O JAGUARES, LES PIDO QUE ME LOS MANDEN

GRACIAS!!!!!!!!!!!!!
Envía el tono de "Hundido en un Rincón" a tu celular/móvil
Este fichero es trabajo propio de su transcriptor y representa su interpretación personal de la canción. El material contenido en esta página es
para exclusivo uso privado, por lo que se prohibe su reproducción o retransmisión, así como su uso para fines comerciales.
© LaCuerda.net · Aviso Legal · Privacidad