Letra y Acordes de Maná: En el muelle de San Blás
Conexión · Inscripción
Letras y Acordes
Pantalla Completa
Imprimir
Versión Texto
Añadir Favorito
Otras Versiones

Mostrar Diagramas
Desfile Automático
Manipular Acordes
Formato del Texto

Maná
En el muelle de San Blás
calidad:
mana0281
AUTOR: Fher Gonzalez, Alex González
ALBUM: Sueños Liquidos (97)
Enviado por Randall
  Em              A
 E---------7---------------5-------
 B-----8-------8-------5-------5---
 G---9---9---9---9---6---6---6---6-
 D-9---------------7---------------
 A---------------------------------
 E---------------------------------
 
   D               G
 ----------5---------------3-----3-
 ------7-------7-------3-------3---
 ----7---7---7---7---4---4---4-----
 --7---------------5---------------
 ----------------------------------
 ----------------------------------
 
 
 Em                   A                    D                          G
   Ella Despidio a su amor el partio en un barco en el muelle de San Blas
 Em                   A                    D                          G
   El juro y que volveria y empapada en llanto ella juro que esperaria
 Em                   A                    D                      G
   Miles de lunas pasaron y siempre ella estaba en el muelle esperando
 Em                   A                    D                      G
   Muchas tardes se anidaron se anidaron en su pelo y en sus labios.
 Em                   A                    D                         G
   Llevaba el mismo vestido y por si el volviera no se fuera a equivocar
 Em                   A                       D                G
   Los cangrejos le mordian sus ropajes, su tristeza y su ilusion
 Em                     A                    D                 G
   Y el tiempo se escurrio y sus ojos se le llenaron de amaneceres
 Em                   A                    D               G
   Y del mar se enamoro y su cuerpo se enrraizo en el muelle.
 
 
              D                 A      D                   A
 Coro     Sola, sola, en el olvido. Sola, sola, con su espiritu
              D                 A     G A                       D
          Sola, sola, con su amor. Sola, en el muelle de San Blas.
 
 
 Em                   A                 D                       G
   Su cabello se blanqueo pero ningun barco a su amor le devolvia
 Em                    A                     D                     G
   Y en el pueblo le decian, le decian la loca del muelle de San Blas
 Em                  A                    D              G
   Y una tarde de abril la trataron transladar al manicomio
 Em                    A                  D               G
   Nadie la pudo arrancar y del mar nunca jamas la separaron.
 
 
      Coro
 
     D                    A       D                  A
      Sola. sola en el olvido. Sola, sola con su espiritu.
     D                    A              G  A
      Sola, sola con el sol y el mar. Sola
     D                    A       D                  A
      Sola, sola en el olvido, Sola, sola con su espiritu.

     D                    A             G  A                     D
      Sola, sola con su amor el mar. Sola, en el muelle de San Blas.
             D                   G
      Se quedo, se quedo, sola, sola.
             D                             G
      Se quedo, se quedo, con el sol y con el mar
             D
      Se quedo ahi, se quedo hasta el fin.
             G                                  D
      Se quedo ahi, se quedo, en el muelle de San Blas
         G
      Sola, Sola se quedo.

=================================================
Transcripcion de Poncho Fernandez A.
(Fernandi@u.arizona.edu)

=================================================
OTRA VERSION DEL INTRO:

Acordes:
(Tienen que ser con cejilla---Uso los números porque no se el nombre del acorde)

Em  079987
A   577655
1   555755 
2   222433

Arpegio:

            Em                          A                 
E|---0----------------------|---5----------------------|      
A|--------------------------|--------------------------|     
D|--------------------------|--------------------------|     
G|------9-----9-----9-----9-|------6-----6-----6-----6-|
B|---------8-----------8----|---------5-----------5----|       
E|---------------7----------|---------------5----------|    

             1                          2
E|--------------------------|--------------------------|      
A|---5----------------------|---2----------------------|     
D|--------------------------|--------------------------|     
G|------7-----7-----7-----7-|------4-----4-----4-------|
B|---------5-----------5----|---------3--------------3-|       
E|---------------5----------|---------------3-----2----|    

Esto es todo lo que tengo por ahora. 
Si sacan la otra parte mandenmela a
allvv@hotmail.com.
Envía el tono de "En el muelle de San Blás" a tu celular/móvil
Este fichero es trabajo propio de su transcriptor y representa su interpretación personal de la canción. El material contenido en esta página es
para exclusivo uso privado, por lo que se prohibe su reproducción o retransmisión, así como su uso para fines comerciales.
© LaCuerda.net · Aviso Legal · Privacidad