Tablatura para Guitarra de Mago De Oz: Sin tí, sería silencio
Conexión · Inscripción
Letras y Acordes
Pantalla Completa
Imprimir
Versión Texto
Añadir Favorito
Otras Versiones

Mostrar Diagramas
Desfile Automático
Manipular Acordes
Formato del Texto

Mago De Oz
Sin tí, sería silencio(TAB)
calidad:
mdoz1383
AUTOR: Txus
ALBUM: La Ciudad de los Arboles (2007)
Enviado por g!oReL
hola a todos aqui subiendo de nuevo la transcripcion, modifique el
acorde de F#m y le añadi algunos riffs, se escucha mejor asi.
Primero que nada son dos guitarras en el intro, entonces
puse el arpegio de la primera y arriba de él los tonos de
acompañamiento como guia,y en la segunda puse el pequeño punteo
y al igual q en la primera puse los tonos arriba como guía.
recuerden q las dos guitarras del intro se tocan al mismo tiempo!!
NOTA: en los B del coro pueden jugar con el Bsus4
NOTA: el en el F#m no se pisa la primera cuerda, queda al aire,
se hace asi en todas las veces que aparece excepto en la parte del
violin, el acorde seria asi:

    F#m
e|---0----|
B|---2----|
G|---2----|
D|---4----|
A|---4----|
E|---2----|

INTRO:(EL ARPEGIO DEL INTRO LO HACE HASTA DONDE DICE:
       “mi guitarra se ha muerto de pie”, de ahí en
       Adelante comienza el rasgueo)
PRIMERA GUITARRA:
ARPEGIO

    E       F#m           B            A
e|------0--------0------------0-------------0-----------|
B|--0-----0--0-----0------0-----0------0------0---------|
G|----1--------2-------------1-------------2------------|
D|------------------------------------------------------|
A|------------------------2------------0----------------|
E|--0--------2------------------------------------------|

    E        F#m        B
e|------0------- -0-------------------------------------|
B|--0-----0---0-----0----------5-4----------------------|
G|----1-----------------4---4------4--------------------|
D|--------------2---------4----------4------------------|
A|------------------------------------------------------|
E|--0---------2---------2-------------------------------|


SEGUNDA GUITARRA:
REQUINTO

   E  F#m         B     A       E       F#m          B
e|--------2p4-2-0-0-------------------------------------|
B|------------------------------------------------------|
G|--------------------------4-2-1h2-1---1/2/1--4p2-2/4--|
D|------------------------------------------------------|
A|------------------------------------------------------|
E|------------------------------------------------------|


E            F#m
Desde que no estás
E       A
el escenario duerme
E           F#m           B
sólo con tu voz despertará

E           F#m
Si pudieras ver
E         A
lo mucho que me faltas
E              F#m            B
mi guitarra se ha muerto de pie

RIFF 1
E                F#m
Cada noche es un acto de amor
      E                    A
y el concierto se hace una cama
      E           F#m
pero faltas tú, tu respiración
      B           RIFF 2
es la nana que me calma

CORO
E        A     B
Sin ti sería silencio
E          A       B
sin ti se muere mi voz
E         A         B
sin ti tiritan de frío
E             A         B
los sueños de cada canción

       A
Porque si no estás
   E
quien me va a curar
   A    B   A   E
de mi  so  le  dad
RIFF 3
      A
porque sin tu voz
       E           A    B    A     E
no me curaré, hoy quie  ro  can   tar

E            F#m
Desde que no estás
E              A
los minutos se hacen horas
E          F#m             B
la derrota silba una canción

E          F#m
Dime dónde estás
E        A
necesito que tus manos
E         F#m              B
maten mis miedos al aplaudir


     E            F#m
Cada noche yo te imagino aquí
    E            A
regalándome tu mirada
     E          F#m
abrazándome con brazos de luz
   B               RIFF 2
tu sonrisa era mi almohada

CORO
E        A     B
Sin ti sería silencio
E          A       B
sin ti se muere mi voz
E         A         B
sin ti tiritan de frío
E             A         B
los sueños de cada canción

       A
Porque si no estás
   E
quien me va a curar
   A   B   A    E
de mi  so  le  dad
RIFF 3

        A
porque sin tu voz
       E           A    B     A    E
no me curaré, hoy quie  ro   can   tar

C#m          B
  Dile a las estrellas
      E              F#m
ahora que eres eternidad
       A              E
que te busque un buen sitio
     A           B
una buena localidad

C#m         B
   Necesito oírte
   E            F#m   (aquí hace un adornito: e|-17-16-14-16-12|)

necesito que tu voz
E         A            E    B
 nunca se borre de mi ser

Lo del violin que esta allá abajo se acompaña con esto:
C#m, B, A, E
C#m, B, F#m(EN ESTE F#m SI SE PISA LA PRIMERA CUERDA)
C#m, B, A, E
C#m, B, A

Esto lo hace el Violín:
(escuchen bien la cancion para q sepan en donde
va cada nota)

e|---11/12---11-12-11-9-7-4-7---7/9--7-9-7--------------|
B|-----------------------------------------7------------|
G|------------------------------------------------------|
D|------------------------------------------------------|
A|------------------------------------------------------|
E|------------------------------------------------------|

e|--9h11/12-----12-14-16/17-16-14--12-14/16-14-12-11-12-|
B|-------------12---------------------------------------|
G|------------------------------------------------------|
D|------------------------------------------------------|
A|------------------------------------------------------|
E|------------------------------------------------------|


Y el requinto se acompaña con los acordes del coro: E, A  B
Requinto:

e|-----------------7---5p4-5-4p5h4----------------------|
B|------5---7p5-7/9-----------------7--5/7--------------|
G|---4h6------------------------------------------------|
D|------------------------------------------------------|
A|------------------------------------------------------|
E|------------------------------------------------------|

e|-------------7-----9-7-9-14^16--14--12/14-------------|
B|-------5-5h7-----9------------------------------------|
G|---4h6------------------------------------------------|
D|------------------------------------------------------|
A|------------------------------------------------------|
E|------------------------------------------------------|


E         A     B
Sin ti sería silencio
E         A        B
sin ti se muere mi voz
E         A        B
sin ti tiritan de frío
E             A         B
los sueños de cada canción

E         A     B
Sin ti sería silencio
E         A        B
sin ti se muere mi voz
E         A        B
sin ti tiritan de frío
E             A         B
los sueños de cada canción


A
Porque si no estás
       E
quien me va a curar
   A   B    A    E
de mi  so   le  dad
        A
porque sin tu voz
       E               A   B    A    E
no podré escuchar a un án  gel  can  tar


RIFF 1
e|--------12------------12------------12----------14-|
B|--10h12----12---10h12----12---10h12------10h12-----|
G|---------------------------------------------------|
D|---------------------------------------------------|
A|---------------------------------------------------|
E|---------------------------------------------------|

RIFF 2
e|--------------4-5-7~-------------------------------|
B|--------4-5-7--------------------------------------|
G|----4-6--------------------------------------------|
D|--7------------------------------------------------|
A|---------------------------------------------------|
E|---------------------------------------------------|

RIFF 3(este riff lo hace hasta el traste 19, no todas las
      Acústicas llegan a ese o es muy incomodo, asi que puse
      2 maneras de tocarlo no tan haya)
1.-
e|--19-19--17--24---17-17--16--24-----17-19-17-12~---|
B|---------------------------------------------------|
G|---------------------------------------------------|
D|---------------------------------------------------|
A|---------------------------------------------------|
E|---------------------------------------------------|

2.- también asi pueden tocarlo
e|------------12------------12-----------------------|
B|--12-12--10-----10-10--9------10-12-10-------------|
G|---------------------------------------9~----------|
D|---------------------------------------------------|
A|---------------------------------------------------|
E|---------------------------------------------------|

es todo, comentarios agradecimientos dudas o quejas a mi correo. biie!
Envía el tono de "Sin tí, sería silencio" a tu celular/móvil
Este fichero es trabajo propio de su transcriptor y representa su interpretación personal de la canción. El material contenido en esta página es
para exclusivo uso privado, por lo que se prohibe su reproducción o retransmisión, así como su uso para fines comerciales.
© LaCuerda.net · Aviso Legal · Privacidad