Tablatura para Guitarra de Mago De Oz: Pensando en ti
Conexión · Inscripción
Letras y Acordes
Pantalla Completa
Imprimir
Versión Texto
Añadir Favorito
Otras Versiones

Mostrar Diagramas
Desfile Automático
Manipular Acordes
Formato del Texto

Mago De Oz
Pensando en ti(TAB)
calidad:
mdoz0384
AUTOR: Kerry Livgrel, Txus
ALBUM: Folktergeist
Enviado por Andres
PENSANDO EN TI
Esta es la primera q mando y aun así me
Han dicho q suena igual pero eso Ust lo deciden,
Esta tab. La hice porque las otras no me
Convencían del todo y quiero compartirla con ust.
Escuchen bien asta canción para agarrarle el tiro
Al arpegio obviamente la versión de mago OK.
Ojala alguno la lea y me den el chance de q
lo hagan Y de q la califiquen


     C           Cmaj7        C/D       C
e|-----------|------------|------------|------------|  |
B|-1------1--|-0-------0--|-3-------3--|-1-------1--|  |
G|-----0---0-|-----0----0-|-----0----0-|-----0----0-|  |
D|----2------|----2-------|----2-------|----2-------|  |
A|-3---------|-3----------|-3----------|-3----------|  |
E|-----------|------------|------------|------------|  |
     Am°         Am°°         Am         Am°         ||
e|-----------|------------|------------|------------|  |
B|-0------0--|-3-------3--|-1-------1--|-0-------0--|  |
G|-----2---2-|-----2----2-|-----2----2-|-----2----2-|  |
D|----2------|----2-------|----2-------|----2-------|  |
A|-0---------|-0----------|-0----------|-0----------|  |
E|-----------|------------|------------|------------|  |
      C/D         C          Cmaj7                 ||
     uuuu……      uuuu……      uuuuu………     uuuu       ||
e|-----------|------------|------------|------------|  |
B|-3------3--|-1-------1--|-0-------0--|-3-------3--|  |
G|-----0---0-|-----0----0-|-----0----0-|-----0----0-|  |
D|----2------|----2-------|----2-------|----2-------|  |
A|-3---------|-3----------|-3----------|-3----------|  |
E|-----------|------------|------------|------------|  |
     Am          Am°         Am°°                    ||
e|-----------|------------|------------|------------|  |
B|-1------1--|-0-------0--|-3-------3--|-1--3-0-----|  |
G|-----2---2-|-----2----2-|-----2----2-|------------|  |
D|----2------|----2-------|----2-------|------------|  |
A|-0---------|-0----------|-0----------|-0--0-0-----|  |
E|-----------|------------|------------|------------|  |
                                                     ||
                                                     ||
    C          Cmaj7        C/D           C          ||
   Ha….y       ve….         ces..        que         ||
e|-----------|------------|-0-------0--|-0------0---|  |
B|-1------1--|-0-------0--|------3-----|-----1------|  |
G|-----0---0-|-----0----0-|-----0----0-|----0----0--|  |
D|----2------|----2-------|------------|------------|  |
A|-3---------|-3----------|-3----------|-3----------|  |
E|-----------|------------|------------|------------|  |
                                                     ||
    G          Dm                Am                  ||
mi alma baila tangos con la  soledad                 ||
e|-3------3--|-1-------1--|-0-------0--|------------|  |
B|-----0---0-|-----3----3-|-----1----1-|-1--3-0-----|  |
G|----0------|----2-------|----2-------|------------|  |
D|-----------|-0----------|------------|------------|  |
A|-2---------|------------|-0----------|-0--0-0-----|  |
E|-----------|------------|------------|------------|  |
                                                     ||
   C            Cmaj7       C/D           C          ||
 Y necesito   de tablar tu amor                      ||
e|-----------|------------|-0-------0--|-0-------0--|  |
B|-1------1--|-0-------0--|------3-----|-----1------|  |
G|-----0---0-|-----0----0-|-----0----0-|----0-----0-|  |
D|----2------|----2-------|------------|------------|  |
A|-3---------|-3----------|-3----------|-3----------|  |
E|-----------|------------|------------|------------|  |
                                                     ||
  G              Dm           Am                     ||
Para hacerme a ella en mi   tempestad                ||
e|-3------3--|-1-------1--|-0-------0--|-0-------0--|  |
B|-----0---0-|------3---3-|-----1----1-|-----1----1-|  |
G|----0------|-----2------|----2-------|----2-------|  |
D|-----------|-0----------|------------|------------|  |
A|-2---------|------------|-0----------|-0----------|  |
E|-----------|------------|------------|------------|  |
                                                     ||
    D/F#                  Am                       ||
               pensando en  ti                       ||
e|-----------|------------|------------|------------|  |
B|-3------3--|-3-------3--|-1-------1--|-1-------1--|  |
G|-----2---2-|-----0----0-|-----2----2-|-----2----2-|  |
D|----0------|----0-------|----2-------|----2-------|  |
A|-----------|------------|-0----------|-0----------|  |
E|-2---------|-3----------|------------|------------|  |
                                                     ||
    D/F#                 Am                        ||
  paso el día  pensando en ti                        ||
e|-----------|------------|------------|------------|  |
B|-3------3--|-3-------3--|-1-------1--|-1--3-0-----|  |
G|-----2---2-|-----0----0-|-----2----2-|------------|  |
D|----0------|----0-------|----2-------|------------|  |
A|-----------|------------|-0----------|-0--0-0-----|  |
E|-2---------|-3----------|------------|------------|  |
                                                     ||
    C          Cmaj7         C/D          C          ||
  ense….       ña…….        me…                      ||
e|-----------|------------|-0-------0--|-0------0---|  |
B|-1------1--|-0-------0--|------3-----|-----1------|  |
G|-----0---0-|-----0----0-|-----0----0-|----0----0--|  |
D|----2------|----2-------|------------|------------|  |
A|-3---------|-3----------|-3----------|-3----------|  |
E|-----------|------------|------------|------------|  |
                                                     ||
    G            Dm            Am                    ||
A escuchar tus  LAbios A    leer el sol              ||
e|-3------3--|-1-------1--|-0-------0--|------------|  |
B|-----0---0-|------3---3-|-----1----1-|-1--3-0-----|  |
G|----0------|-----2------|----2-------|------------|  |
D|-----------|-0----------|------------|------------|  |
A|-2---------|------------|-0----------|-0--0-0-----|  |
E|-----------|------------|------------|------------|  |
                                                     ||
   C            Cmaj7       C/D           C          ||
  lle…         va…          me…                      ||
e|-----------|------------|-0-------0--|-0-------0--|  |
B|-1------1--|-0-------0--|------3-----|------1-----|  |
G|-----0---0-|-----0----0-|-----0----0-|-----0----0-|  |
D|----2------|----2-------|------------|------------|  |
A|-3---------|-3----------|-3----------|-3----------|  |
E|-----------|------------|------------|------------|  |
                                                     ||
   G             Dm           Am                     ||
   a donde los sueños fabrican  tu voz               ||
e|-3------3--|-1-------1--|-0-------0--|-0-------0--|  |
B|-----0---0-|-----3----3-|-----1----1-|-----1----1-|  |
G|----0------|----2-------|----2-------|----2-------|  |
D|-----------|-0----------|------------|------------|  |
A|-2---------|------------|-0----------|-0----------|  |
E|-----------|------------|------------|------------|  |
                                                     ||
    D/F#                  Am                       ||
               Pensando en  ti                       ||
e|-----------|------------|------------|------------|  |
B|-3------3--|-3-------3--|-1-------1--|-1-------1--|  |
G|-----2---2-|-----0----0-|-----2----2-|-----2----2-|  |
D|----0------|----0-------|----2-------|----2-------|  |
A|-----------|------------|-0----------|-0----------|  |
E|-2---------|-3----------|------------|------------|  |
                                                     ||
    D/F#                  Am                       ||
duermo el odio  pensando en ti………                      ||
e|-----------|------------|------------|------------|  |
B|-3------3--|-3-------3--|-1-------1--|-1-------1--|  |
G|-----2---2-|-----0----0-|-----2----2-|-----2----2-|  |
D|----0------|----0-------|----2-------|----2-------|  |
A|-----------|------------|-0----------|-0----------|  |
E|-2---------|-3----------|------------|------------|  |
    Am           Am                        …………………………………ojo aquí..
                           aaaaaaaaaaaaaaa  A  A     ||
e|-----------|------------|-3-------3--|-3--1--0----|  |
B|-1------1--|-1-------1--|-----2----2-|------------|  |
G|-----2---2-|-----2----2-|----0-------|------------|  |
D|----2------|----2-------|------------|------------|  |
A|-0---------|-0----------|------------|----0--0----|  |
E|-----------|------------|-3----------|-3----------|  |
     Am           Am           Am          Am        ||
                                                     ||
e|-----------|------------|------------|------------|  |
B|-1------1--|-1-------1--|-1-------1--|-1-------1--|  |
G|-----2---2-|-----2----2-|-----2----2-|-----2----2-|  |
D|----2------|----2-------|----2-------|----2-------|  |
A|-0---------|-0----------|-1----------|-1----------|  |
E|-----------|------------|------------|------------|  |
                                                     ||
                                                     ||
Aquí sigue el solo                                   ||
VA ACOMPAÑADO POR LOS ACORES DE LA INTRODUCCIÓN  X2  ||
                                                     ||
    C          Cmaj7         C/D          C          ||
   Don         de     es     tas                     ||
e|-----------|------------|-0-------0--|-0------0---|  |
B|-1------1--|-0-------0--|------3-----|-----1------|  |
G|-----0---0-|-----0----0-|-----0----0-|----0----0--|  |
D|----2------|----2-------|------------|------------|  |
A|-3---------|-3----------|-3----------|-3----------|  |
E|-----------|------------|------------|------------|  |
                                                     ||
    G            Dm            Am                    ||
   tengo miedo ayudame a    caminar                  ||
e|-3------3--|-1-------1--|-0-------0--|------------|  |
B|-----0---0-|------3---3-|-----1----1-|-1--3-0-----|  |
G|----0------|-----2------|----2-------|------------|  |
D|-----------|-0----------|------------|------------|  |
A|-2---------|------------|-0----------|-0--0-0-----|  |
E|-----------|------------|------------|------------|  |
                                                     ||
   C            Cmaj7       C/D           C          ||
pues solo nunca yo podre encontrar                   ||
e|-----------|------------|-0-------0--|-0-------0--|  |
B|-1------1--|-0-------0--|------3-----|------1-----|  |
G|-----0---0-|-----0----0-|-----0----0-|-----0----0-|  |
D|----2------|----2-------|------------|------------|  |
A|-3---------|-3----------|-3----------|-3----------|  |
E|-----------|------------|------------|------------|  |
                                                     ||
   G             Dm           Am                     ||
LA forma D ser libre quiero despertar                ||
e|-3------3--|-1-------1--|-0-------0--|-0-------0--|  |
B|-----0---0-|-----3----3-|-----1----1-|-----1----1-|  |
G|----0------|----2-------|----2-------|----2-------|  |
D|-----------|-0----------|------------|------------|  |
A|-2---------|------------|-0----------|-0----------|  |
E|-----------|------------|------------|------------|  |
                                                     ||
    D/F#                  Am                       ||
               Pensando en  ti                       ||
e|-----------|------------|------------|------------|  |
B|-3------3--|-3-------3--|-1-------1--|-1-------1--|  |
G|-----2---2-|-----0----0-|-----2----2-|-----2----2-|  |
D|----0------|----0-------|----2-------|----2-------|  |
A|-----------|------------|-0----------|-0----------|  |
E|-2---------|-3----------|------------|------------|  |
                                                     ||
    D/F#                  Am                       ||
acuno mi alma  pensando en  ti                       ||
                            paso el dia pensando en ti
e|-----------|------------|------------|------------|  |
B|-3------3--|-3-------3--|-1-------1--|-1-------1--|  |
G|-----2---2-|-----0----0-|-----2----2-|-----2----2-|  |
D|----0------|----0-------|----2-------|----2-------|  |
A|-----------|------------|-0----------|-0----------|  |
E|-2---------|-3----------|------------|------------|  |
   D/F#                   Am                       ||
paso el dia   pensando en   ti                       ||
                            paso el dia pensando en ti|
e|-----------|------------|------------|------------|  |
B|-3------3--|-3-------3--|-1-------1--|-1-------1--|  |
G|-----2---2-|-----0----0-|-----2----2-|-----2----2-|  |
D|----0------|----0-------|----2-------|----2-------|  |
A|-----------|------------|-0----------|-0----------|  |
E|-2---------|-3----------|------------|------------|  |
                                                     ||
    D/F#                 Am            Am°         ||
paso el dia   pensando en  ti                        ||
e|-----------|------------|------------|------------|  |
B|-3------3--|-3-------3--|-1-------1--|-0-------0--|  |
G|-----2---2-|-----0----0-|-----2----2-|-----2----2-|  |
D|----0------|----0-------|----2-------|----2-------|  |
A|-----------|------------|-0----------|-0----------|  |
E|-2---------|-3----------|------------|------------|  |
    Am°°         Am

e|-----------|------------|
B|-3------3--|-1-------1--|
G|-----2---2-|-----2----2-justo aquí empieza el solo
D|----2------|----2-------con sus respectivos acordes
A|-0---------|-0----------|
E|-----------|------------|

Por fin que cosa mas larga bueno eso es todo
Póngale arto cuidado y varan que esta súper idéntico
Comentarios o cosas así escríbanme o agréguenme
No hay problema al correo
a.pipe-96@hotmail.com
Se la dedico a flaca Nora t.q.m.

ACORDES
        |e|B|G|D|A|E|
   C/D: |0|3|0|2|3|0|
   Am°: |0|0|2|2|0|0|
     C: |0|1|0|2|3|0|
 Cmaj7: |0|0|0|2|3|0|
    G°: |3|3|0|0|2|3|
     G: |3|0|0|0|2|3|
  Am°°: |0|3|2|2|0|0|
    Am: |0|1|2|2|0|0|
  D/F#: |2|3|2|0|0|2|

Por: Andrés Felipe Rengifo.
     Ricaurte Valle
Envía el tono de "Pensando en ti" a tu celular/móvil
Este fichero es trabajo propio de su transcriptor y representa su interpretación personal de la canción. El material contenido en esta página es
para exclusivo uso privado, por lo que se prohibe su reproducción o retransmisión, así como su uso para fines comerciales.
© LaCuerda.net · Aviso Legal · Privacidad