Tablatura para Guitarra de Mago De Oz: Molinos de Viento
Conexión · Inscripción
Letras y Acordes
Pantalla Completa
Imprimir
Versión Texto
Añadir Favorito
Otras Versiones

Mostrar Diagramas
Desfile Automático
Manipular Acordes
Formato del Texto

Mago De Oz
Molinos de Viento(TAB)
calidad:
mdoz0369
AUTOR: Mägo De Oz, Txus
ALBUM: La Leyenda de la Mancha
Enviado por Rafael
Mägo de oz
Molinos del Viento (Acústico)
Transcripción de Rafael Angel

esta es la primera transcripcion que mando
Aquí les va el tab de la versión acústica de molinos del viento
de la famosa agrupacion Española.
disfrutenla

INTRO
Guitarra 1
   Em                                       D
e|-------------0------------------0--------------------2----2h3p2--|
B|-------0---0---0-----0------0--0--0-----0------3---3---3---------|
G|-----0---0------0--0------0---0----0--0------2---2------2--------|
D|---2--------------2------2-----------2------0--------------------|
A|-2---------------------2------------------0----------------------|
E|-----------------------------------------------------------------|

Guitarra 2
   Em                                       D
e|-------------0------------------0--------------------2----2h3p2--|
B|-------0--------------------0--0---------------3-----3----3------|
G|---------------------------------------------2---2---------------|
D|------------------------------------------0----------------------|
A|-----------------------------------------------------------------|
E|-0---------------------0-----------------------------------------|

Guitarra 1
    C          D
e|-------------------2-----|
B|--------1--------3--3----|
G|------0--0-----2-----2---|
D|----2-----2--0-----------|
A|--3----------------------|
E|-------------------------|

Guitarra 2
    C          D
e|-------------------2h3p2-|
B|--------1--------3-3-----|
G|------0--------2---------|
D|----2--------0-----------|
A|--3----------------------|
E|-------------------------|

Guitarras 1 y 2
   Em                                       D
e|-------------0-------3----------0-------3------------2----2h3p2--|
B|-------0---0---0------------0--0--0------------3---3---3--3------|
G|-----0---0------0--0------0---0----0--0------2---2------2--------|
D|---2--------------2------2-----------2------0--------------------|
A|-2---------------------2------------------0----------------------|
E|-----------------------------------------------------------------|
    C           D
e|--------------------2h3p2-|
B|--------1-1-------3-3-----|
G|------0-0-0-----2---------|
D|----2---------0-----------|
A|--3-----------------------|
E|--------------------------|

IGUAL QUE EL INTRO
Em
   Si acaso tu no ves
   Más allá de tu nariz
D                       C  D
   No oyes a una flor reiiiir

Em
   Si no puedes hablar
   Sin tener que oír tu voz
D                     C  D
   Utilizando el corazón

Em
   Amigos antes escúchame
                             D
   no todo tiene que un porque
                            C  D
   un camino lo hacen los pies
Em
   hay un mundo por descubrir
                       D
   y una vida que arrancar
                         C  D
   de brazos del guión final

  Em            D             C
                      A veces siento al despertar
  Em            D             C
                      que el sueño es la realidad

Coro:
Em
Bebe canta sueña
                D                   C
siente que el viento ha sido hecho para ti
 Em
vive escucha y habla
            D           C
usando para eso el corazón
 Em                          D                     C
siente que la lluvia besa tu cara cuando haces el amor
 Em                          D
grita con el alma grita tan alto

e|-------------------------------------|
B|-5-4-3-2-----------------------------|
G|----------5-4-3-2--------------------|
D|-------------------5-4-3-2-----------|
A|----------------------------5-3-2----|
E|-----------------------------------5-|
Que de tu vida tú seas amigo el único actor
Em D C D
|-15-15-15-15--15--15--17p15--15--14h15-15-----1515151515-17p1515-14h1515-|
|--------------------------------------------17---------------------------|
Em D C D
|----14-14-14-14-14-17p14-14-12h14-14-------------12-15----------14-17----|
|-15------------------------------------13-13-13--------15-15-15----------|

SOLO
  1                  Rápido, muy rápido
e|-7-7-7-7-5-----------------7-7-7-7-5------------7-7-7-7-5-|
B|-----------8-7-7-7-8-7-5-------------8-7-8-7-5------------|
G|----------------------------------------------------------|
D|----------------------------------------------------------|

e|--------------------------------------|
B|--8-7-7-7-8-7-5---5-7-8-7--5-7-5--8-5-|
G|----------------7---------------------| X 3

Em Em
     Si acaso tu opinion     Em Em
Cabe en un si o un no   D D
Y no sabes rectificar   C    D      Em Em
SI puedes definir       Em Em
El odio o el amor       D D
Amigo que desilusión    C    D

Em
   No todo es blanco negro o gris
                        D
   Todo depende del matriz
                            C  D
   Busca y aprende a distinguir
Em
   La luna puede calentar
                            D
   Y el sol tus noches alumbrar
                           C  D
   Los árboles mueren de pie

  Em            D             C
                      He visto un manantial volar
  Em            D             C
                      al ver sus aguas ir al mar
Coro:
Em
Bebe canta sueña
                D                   C
Siente que el viento ha sido hecho para ti
 Em
Vive escucha y habla
            D           C
Usando para eso el corazón
 Em                          D                     C
Siente que la lluvia besa tu cara cuando haces el amor
 Em                          D
Grita con el alma grita tan altooo
Em
Bebe canta sueña
                D                   C
Siente que el viento ha sido hecho para ti
 Em
Vive escucha y habla
            D           C
Usando para eso el corazón
 Em                          D                     C
Siente que la lluvia besa tu cara cuando haces el amor
 Em                          D
Grita con el alma grita tan altooo

e|-------------------------------------|
B|-5-4-3-2-----------------------------|
G|----------5-4-3-2--------------------|
D|-------------------5-4-3-2-----------|
A|----------------------------5-3-2----|
E|-----------------------------------5-|
Que de tu vida tu seas amigo el único actor

MAGO DE OZ
RAFAEL ANGEL
Envía el tono de "Molinos de Viento" a tu celular/móvil
Este fichero es trabajo propio de su transcriptor y representa su interpretación personal de la canción. El material contenido en esta página es
para exclusivo uso privado, por lo que se prohibe su reproducción o retransmisión, así como su uso para fines comerciales.
© LaCuerda.net · Aviso Legal · Privacidad