Tablatura para Guitarra de Mago De Oz: Molinos de Viento
Conexión · Inscripción
Letras y Acordes
Pantalla Completa
Imprimir
Versión Texto
Añadir Favorito
Otras Versiones

Mostrar Diagramas
Desfile Automático
Manipular Acordes
Formato del Texto

Mago De Oz
Molinos de Viento(TAB)
calidad:
mdoz0364
AUTOR: Mägo De Oz, Txus
ALBUM: La Leyenda de la Mancha
Enviado por Abraham
Solo de Molinos de Viento:
Espero que acepten esta tablatura.
Ninguna de las otras tablaturas esta correcta, o
completa, el solo esta en Sol mayor, por si kieren
improvisar un poco, pero por mientras aki aparece
completo:

-7-7-7-7-5-------5--------7-7-7-7-5----------------
-----------8-7-8---8-7-5------------8-7-8-7-5------
---------------------------------------------------
---------------------------------------------------
---------------------------------------------------
---------------------------------------------------

-7-7-7-7-5-------5---------------5-----------------
-----------8-7-8---8-7-5---5-7-8---8-7-5-8-5-------
-------------------------7-------------------------
---------------------------------------------------
---------------------------------------------------
---------------------------------------------------

(2:53)
--------------------------
--5---7-8-7/8--7-5--7-----
--------------------------
--------------------------
--------------------------
--------------------------

(esta es la parte rápida) (2:57)
-------------------------------------------5-7-8-7-5-------
------------------------------------5-7-8------------8-7-5-
---------4-5-7-5-4-----------4-5-7-------------------------
--4-5-7------------7-5-4-5-7-------------------------------
-----------------------------------------------------------
-----------------------------------------------------------

-5--7--8--7---8--7--5--7-
-------------------------
-------------------------
-------------------------
-------------------------
-------------------------

(3:02)
-5-7-10-8-7-5-7-8-7-5-7-5-------5--------------
--------------------------8-7-8---8-7-5-7-8-7--
-----------------------------------------------
-----------------------------------------------
-----------------------------------------------
-----------------------------------------------

------------------------
--5--3--5--7--8--7—5/---
------------------------
------------------------
------------------------
------------------------

Si escuchan bien la canción se darán cuenta
de k así va, nada mas tienen k escucharla para
atinar todas las notas.
califiquen por favor.

Cualquier cosa a mi correo:
soad244@hotmail.com
Envía el tono de "Molinos de Viento" a tu celular/móvil
Este fichero es trabajo propio de su transcriptor y representa su interpretación personal de la canción. El material contenido en esta página es
para exclusivo uso privado, por lo que se prohibe su reproducción o retransmisión, así como su uso para fines comerciales.
© LaCuerda.net · Aviso Legal · Privacidad