Tablatura para Guitarra de Mago De Oz: La rosa de los vientos
Conexión · Inscripción
Letras y Acordes
Pantalla Completa
Imprimir
Versión Texto
Añadir Favorito
Otras Versiones

Mostrar Diagramas
Desfile Automático
Manipular Acordes
Formato del Texto

Mago De Oz
La rosa de los vientos(TAB)
calidad:
mdoz0653
AUTOR: Carlitos Y Su G, Fernando, Frank, Jose, Kiskilla, Mohamed, Sergio, Txus
ALBUM: Gaia (2003)
Enviado por jonathan
Bien que tal esta es mi primer transcripcion espero que les guste
la cancion esta afinada en D# le dejo el link de mi facebook para
dudas o comentarios

https://www.facebook.com/jonathan.ruizmartinez.773?ref=tn_tnmn

ya saben agragenme si tienen facebook


ANTES DE EMPEZAR!!!!
La canción esta afinada en D#

1.-D#       3.-C#
2.-A#       4.-G#
3.-F#       5.-D#

Recuerden que la primer cuerda es la mas delgada y la sexta la mas gruesa...

Intro:

D#|-13-12-10-10-------------|
A#|-------------13-11-10----|
F#|----------------------12-|

D#|-13-12-10-10-12-13-15-13-12-|

D#|-13-12-10-10-------------|
A#|-------------13-11-10----|
F#|----------------------12-|

D#|-13-15-17-15-------|
A#|-------------17-13-|

Melodía:

D#|-13-15-17-15-13-------------|
A#|----------------17-15-13-15-|

D#|-13-15-17-15-13----13----13-|
A#|----------------17----17----|

D#|-------------13-15-------------|
A#|-15-13-11-15-------15-13-15----|
F#|----------------------------14-|

D#|-------------13-15----------|
A#|-15-13-11-15-------15-13-15-|

Melodía Violín/Flauta:

E8-B-C#m X2
A-B-C#m
A-B-C#m / B / C#m -Golpes de caja

B/E8
Si siembras una ilusión
B/C#m
Y la riegas con tu amor
G#/A         E8     B
Y el agua de la constancia
B/E8
Brotará en ti una flor
B/C#m
Y su aroma y su calor

En esta estrofa va un riff:

Te arroparán cuando algo vaya mal.
  A#--------------8-10-8----8-|
  F#----7-10-9-10--------10---|
  C#-8------------------------|


¡¡ESCALA DE E MAYOR!!

D#|-15-17-18-20-|
A#|-15-17-18----|
F#|-14-15-17----|
                    ESTA ESCALA VA MUY RAPIDO
C#|-14-15-17----|   Y ENTRA LA VOS DE TXUS
G#|-13-15-17----|
D#|-13-15-17----|

E8               B
Sí siembras un ideal
C#               G#
En la tierra del quizás
E8     B      E8    B
Y lo abonas con la envidia
E8               B
Será dificil arrancar.
C#   G#
La maldad
A    B    E8        B/G#/B
De tu alma echó raíz.

C#      G#      A
Y que mi luz te acompañe
E8   C#      A       E8
Pues la vida es un jardín
A        E8      F#8
Donde lo bueno y lo malo
E8             A
Se confunden y es humano
B                C#
No siempre saber elegir.

C#      G#      A
Y sí te sientes perdido
E8      C#   A       E8
Con tus ojos nos has de ver.
A     E8         F#8
Hazlo con los de tu alma
E8            A
Y encontrarás la calma
B              E8
Tu rosa de los vientos seré.

MELODIA VIOLIN/FLAUTA:

E8-B-C#m X2
A-B-C#m
A-B-C#m

E8          B   C#m
Sí siembras una amistad
G#  A    B
Con mimo plántala
E8        B
Y abónala con paciencia
E8         B
Pódala con la verdad
C#m             G#
Y transplántala con fe

De nuevo el riff:

  Pues necesita bien poder crecer
  A#--------------8-10-8----8-|
  F#----7-10-9-10--------10---|
  C#-8------------------------|

E8    B            C#m
Sí te embriagas de pasión
G#   A          B
Y no enfrías tu corazón
E8            B
Tartamudearán tus sentidos y quizás
E8              C#            G#
Hablará sólo el calor y no la razón
A    B                 E8/B/G#/B
Es sabio contar hasta diez.

C#      G#      A
Y que mi luz te acompañe
E8   C#      A       E8
Pues la vida es un jardín
A        E8      F#8
Donde lo bueno y lo malo
E8             A
Se confunden y es humano
B                C#
No siempre saber elegir.

C#      G#      A
Y sí te sientes perdido
E8      C#   A       E8
Con tus ojos nos has de ver.
A     E8         F#8
Hazlo con los de tu alma
E8            A
Y encontrarás la calma
B              E8
Tu rosa de los vientos seré.

LLEGAN LOS SOLOS:


D#|-13-12-10-10-------------|
A#|-------------13-11-10----|
F#|----------------------12-|

D#|-13-12-10-10-12-13-15-13-12-|

D#|-13-12-10-10-------------|
A#|-------------13-11-10----|
F#|----------------------12-|

D#|-13-15-17-15-------|
A#|-------------17-13-|

REPETIMOS:


D#|-13-12-10-10-------------|
A#|-------------13-11-10----|
F#|----------------------12-|

D#|-13-12-10-10-12-13-15-13-12-|

D#|-13-12-10-10-------------|
A#|-------------13-11-10----|
F#|----------------------12-|

D#|-13-15-17-15-------|
A#|-------------17-13-|

EL SOLO ES UNA SANTA LOCURA ASI QUE PUEDEN IMPROVISAR
CON ESTAS NOTAS:

C#-G#-A-E8-C#-A-E8

TERMINANDO EL SOLO VA EL SOLO DEL TECLADO:

C#m-G#-A-E8-C#m-A-E8

A-E8-F#8-E8-A-B-C#m


C#      G#      A
Y que mi luz te acompañe
E8   C#      A       E8
Pues la vida es un jardín
A        E8      F#8
Donde lo bueno y lo malo
E8             A
Se confunden y es humano
B                C#
No siempre saber elegir.


C#      G#      A
Y sí te sientes perdido
E8      C#   A       E8
Con tus ojos nos has de ver.
A     E8         F#8
Hazlo con los de tu alma
E8            A
Y encontrarás la calma
B              E8
Tu rosa de los vientos seré.

A          B           E8
tu rosa de los vientos sere.
A          B           E8
Tu rosa de los vientos sere

TU ROSAAAAAAAAAA DE LOS VIEEEEEENNNNNTOSSSS SERRRRRREEEEEEE¡¡¡¡¡

CIERRE ACUSTICO:

A#|-----6-----5-----3-------|
F#|---7-----5-----3-----3-2-|
C#|-7-----5-----3-----3-----| X20

notas :

RECUERDEN AFINACION EN: D#

E8 - X81010XX                     B - X355XX o  81010XX
 A - X133XX  o  688XXX          C#m - X577XX
G# - 577XXX                     F#8 - X101012XX
Envía el tono de "La rosa de los vientos" a tu celular/móvil
Este fichero es trabajo propio de su transcriptor y representa su interpretación personal de la canción. El material contenido en esta página es
para exclusivo uso privado, por lo que se prohibe su reproducción o retransmisión, así como su uso para fines comerciales.
© LaCuerda.net · Aviso Legal · Privacidad