Tablatura para Bajo de Mago De Oz: La danza del fuego
Conexión · Inscripción
Letras y Acordes
Pantalla Completa
Imprimir
Versión Texto
Añadir Favorito
Otras Versiones

Mostrar Diagramas
Desfile Automático
Formato del Texto

Mago De Oz
La danza del fuego(BAJ)
calidad:
mdoz0268
AUTOR: Txus
ALBUM: Finisterra
Enviado por Carlos
Hola como están esta es otra colaboración que hago,
 esta canción me gusta mucho y el bajo es muy fácil de sacarlo.
A por cierto esta canción la saco así en mi grupo
 de la Universidad Salesiana en Quito.
Solo póngale ganas y les va a salir perfecto. Suerte
Y que “Viva Ecuador”. “Cabrones”.

Intro 00:00
Que le corresponde al violin y las guitarras.

Min 00:27  Entra el bajo con el violin y las guitarras
G ----------------------------------------------
D ------0------0--------0----0------0--------0--
A -0--3---0--0-----3--3--------0--0-----3--3----  X1
E ---------------1--------------------1---------

Min 00:54 “Verso”I
G ----------------------------------------
D -------0-0-----0-0-------------0---0-0--
A -0-3-------0-0-----3-3-----3-3---0------
E -----------------------1-1--------------

G ----------------------------------------
D -0-0-----0-0--------------0---0-0-------
A -----0-0-----3-3-----3-3----0-----------
E -----------------1-1--------------------

Min 01:38 “Violín”
G ----------------------------------------
D -0-0-----0-0------------------0-0-------
A -----0-0-----3-3-----3-3----3-----------
E -----------------1-1------1-------------

Min 01:58 “Coro”
G -----------------------------------------------------------------
D 0-0-0-0------------------0-0-0-0--------------------------0-0-0-0
A --------0-0-0-0--0-0-0-0-----------------3-3-3-3--3-3-3-3----- X2
E --------------------------------1-1-1-1-------------------------

Min 02:13 “Violín”
G -----------------------------------------------------------------
D 0-0-0-0------------------0-0-0-0--------------------------0-0-0-0
A --------0-0-0-0--0-0-0-0-----------------3-3-3-3--3-3-3-3----- X2
E --------------------------------1-1-1-1-------------------------

Min 02:28 “Verso”II
G ---------------------------------
D ---------------------------------
A -5-5-5-5-1-1-1-1-3-3-3-3-3-3-3-3- X2
E ---------------------------------

G ---------------------------------
D ---------------------------------
A ----------------3-3-3-3--3-3-3-3- X1
E 1-1-1-1--1-1-1-1-----------------

G -----------------------------------
D -----------------------------------
A ---------3-3-3-3--5-5-5-5--5-5-5-5- X1
E -1-1-1-1---------------------------

G ---------------------------------
D ---------------------------------
A -5-5-5-5-1-1-1-1-3-3-3-3-3-3-3-3- X2
E ---------------------------------

G ---------------------------------
D ---------------------------------
A ----------------3-3-3-3--3-3-3-3- X1
E 1-1-1-1--1-1-1-1-----------------

G -----------------------------------
D -----------------------------------
A ---------3-3------5-5-5-5--3-5----- X1
E -1-1-------------------------------

Min 02:58 “Coro”
G -----------------------------------------------------------------
D 0-0-0-0------------------0-0-0-0--------------------------0-0-0-0
A --------0-0-0-0--0-0-0-0-----------------3-3-3-3--3-3-3-3----- X2
E --------------------------------1-1-1-1-------------------------

Min 03:12 “Violín”
G -----------------------------------------------------------------
D 0-0-0-0------------------0-0-0-0--------------------------0-0-0-0
A --------0-0-0-0--0-0-0-0-----------------3-3-3-3--3-3-3-3----- X2
E --------------------------------1-1-1-1-------------------------

G ---------------------------------
D ---------------------------------
A -5-5-5-5-1-1-1-1-3-3-3-3-3-3-3-3- X2
E ---------------------------------

G ---------------------------------
D ---------------------------------
A ----------------3-3-3-3--3-3-3-3- X1
E 1-1-1-1--1-1-1-1-----------------

G -----------------------------------
D -----------------------------------
A ---------3-3------5-5-5-5--3-5----- X1
E -1-1-------------------------------

Min 03:41 “En el solo el bajo hace esto”
G ---------------------------------
D ---------------------------------
A -5-5-5-5-1-1-1-1-3-3-3-3-3-3-3-3- X2
E ---------------------------------

G ---------------------------------
D ---------------------------------
A ----------------3-3-3-3--3-3-3-3- X1
E 1-1-1-1--1-1-1-1-----------------

G -----------------------------------
D -----------------------------------
A ---------3-3------5-5-5-5--3-5----- X1
E -1-1-------------------------------

Min 03:56
G -------------------------------
D -------------------------------
A -3-5-5-5--3-5-5-5-5--3-3-3-3-5- X7 y después
E -------------------------------

G ---------------------------------
D ---------------------------------
A -8-7-5-3--3-3-3-3-3-3-3-3-3-3-3-3
E ---------------------------------

Min 04:26 “Coro”
G -----------------------------------------------------------------
D 0-0-0-0------------------0-0-0-0--------------------------0-0-0-0
A --------0-0-0-0--0-0-0-0-----------------3-3-3-3--3-3-3-3-------- X4
E --------------------------------1-1-1-1--------------------------

Min 04:55  “Violín”
G ---------------------------------
D ---------------------------------
A -5-5-5-5-1-1-1-1-3-3-3-3-3-3-3-3- X2
E ---------------------------------

G ---------------------------------
D ---------------------------------
A ----------------3-3-3-3--3-3-3-3- X1
E 1-1-1-1--1-1-1-1-----------------

G -----------------------------------
D -----------------------------------
A ---------3-3------5-5-5-5--3-5----- X1
E -1-1-------------------------------

Y FIN DE ESTA GRAN CANCION
 DEL ALBUM “FINISTERRA”
Envía el tono de "La danza del fuego" a tu celular/móvil
Este fichero es trabajo propio de su transcriptor y representa su interpretación personal de la canción. El material contenido en esta página es
para exclusivo uso privado, por lo que se prohibe su reproducción o retransmisión, así como su uso para fines comerciales.
© LaCuerda.net · Aviso Legal · Privacidad