Tablatura para Guitarra de Mago De Oz: La ciudad de los Arboles
Conexión · Inscripción
Letras y Acordes
Pantalla Completa
Imprimir
Versión Texto
Añadir Favorito
Otras Versiones

Mostrar Diagramas
Desfile Automático
Manipular Acordes
Formato del Texto

Mago De Oz
La ciudad de los Arboles(TAB)
calidad:
mdoz1414
AUTOR: Txus, mägo de oz
ALBUM: La Ciudad de los árboles (2007)
Enviado por Logan
Qe ond!!
Pz aqi corrigiendo cancionez xD
Ez lo mejor qe la pude zacar,,, aver zi lez guzta!

INTRO:
E|--------------------------------------------------- |
B|--7-8-----10-7-8---------7-8----7-8-10------------- |
G|-9---9-9--------9-9---7-9---9-7-------7-7---------- |
D|--------------------------------------------------- |
A|--------------------------------------------------- |
E|--------------------------------------------------- |
                                                    |- x3
                                                    |-
E|----------------------7------------7--------------- |
B|--7-8-----10-7-8--------10-8-7-8-10--7-9----------- |
G|-9---9-9--------9-9-------------------------------- |
D|--------------------------------------------------- |
A|--------------------------------------------------- |
E|--------------------------------------------------- |
                                                   |--
G
 Érase una vez hace
      A            C
hace mucho tiempo ya
G                           A     D
 un reino perdido en un lejano lugar
G
 La noche se rindió
          A           C
al sueño de la eternidad
G                        A            D
 ritos, brujería, almas buscando la paz

A G A           A G A          A G A
      No duermas,     no entres,    no no mires atrás
E|----7---5------------7--5----------7H5---7--7---9-------------
B|-------------7-------------5----------------------------------

A G A           A G A             A G A
      no grites,      no escuches,      no reces no te servirá
E|----7---5------------7--5--------------7H5----7----7-------9--
B|-------------7-------------5----------------------------------

A               G
 La noche da paso al ritual
  C                    D  CD
despertando la maldición
A                        G
 el bosque está hechizado por el mal
 C...
hay luna llena protégete

                                                   |--
E|--------------------------------------------------- |
B|--7-8-----10-7-8---------7-8----7-8-10------------- |
G|-9---9-9--------9-9---7-9---9-7-------7-7---------- |
D|--------------------------------------------------- |
A|--------------------------------------------------- |
E|--------------------------------------------------- |
                                                    |- x2
                                                    |-
E|----------------------7------------7--------------- |
B|--7-8-----10-7-8--------10-8-7-8-10--7-9----------- |
G|-9---9-9--------9-9-------------------------------- |
D|--------------------------------------------------- |
A|--------------------------------------------------- |
E|--------------------------------------------------- |
                                                   |--

G
 Cada alma en pena
       A         C
es un árbol condenado
G
 a convertirse en ser humano
     A        D
y buscar la luz

A G A         A G A           A G A
      Difuntos,     no muertos,     con una historia que contar
E|----7--5-----------7---5-----------7H5-----7---7---9----------
B|----------7---------------5-----------------------------------

A              G
 Sus ojos son pozos de dolor
      C                    D   CD
madrigueras de pena y tristeza
A                  G
 embalses de estancada soledad
 C...
y cada árbol es su ataúd
       A            G
Bienvenido a la ciudad
        C          D
de los árboles perdidos
        A             G
donde nada es lo que ves
      C             D
donde nada es realidad
        A            G
Has llegado a la ciudad
     C             D
al país de los perdidos
       A          G
donde cada anochecer
        C           D
se oyen árboles llorar



<--Aqi va el requinto... pero ze loz debo xD-->


A            G
 La noche da paso al ritual
C                    D   CD
despertando la maldición
A                  G
 el bosque está hechizado por el mal
     C                 D...
hay luna llena protégete

...

       G            A
Bienvenido a la ciudad
       C           D
de los árboles perdidos
       G              A
donde nada es lo que ves
       C            D
donde nada es realidad
        G            A
Has llegado a la ciudad
    C              D
al país de los perdidos
       G          A
donde cada anochecer
     C              D
se oyen árboles llorar        x2


05:58

E|-7---------7---------7---------7----
B|--10-8-7-8--10-8-7-8--10-8-7-8--7-9-
G|------------------------------------ FIN
D|------------------------------------
A|------------------------------------
E|------------------------------------


Arre CABRONEZ!!!
pz ez lo mejor qe lez puedo dar...

Arriba Mägo de Oz!!!!

PD.Ezta tablatura ba dedicada a un amigo qe me ha ayudado mucho
En laz buenaz y en laz peorez xD
Graciaz Cezar!! L=

                         ·Logan †Zephiroth†·
Envía el tono de "La ciudad de los Arboles" a tu celular/móvil
Este fichero es trabajo propio de su transcriptor y representa su interpretación personal de la canción. El material contenido en esta página es
para exclusivo uso privado, por lo que se prohibe su reproducción o retransmisión, así como su uso para fines comerciales.
© LaCuerda.net · Aviso Legal · Privacidad