Tablatura para Guitarra de Mago De Oz: La Cantata del Diablo (Missit me Dominus)
Conexión · Inscripción
Letras y Acordes
Pantalla Completa
Imprimir
Versión Texto
Añadir Favorito
Otras Versiones

Mostrar Diagramas
Desfile Automático
Manipular Acordes
Formato del Texto

Mago De Oz
La Cantata del Diablo (Missit me Dominus)(TAB)
calidad:
mdoz1043
AUTOR: Jesus Hernandez
ALBUM: Gaia ii la voz Dormida (2006)
Enviado por RicArdo
**=repetir


Hola a todos esta es una
canción larga y esto me tomo
sacarla como una semana entera espero les guste
espero disfruten la canción luego
les mando un solo
otra cosa antes de calificarme toquen para que vean que la
mayoría de las cosas esta 99.98% correcto
saludos a todos y viva
¡¡¡¡¡¡México y toda la raza negra¡¡¡¡¡¡¡¡



Intro(0:09)

Primero entra con esto y(oigan la canción para que me entiendan)
luego se tocan las dos
cosas flauta y guitarra
  Dm                      x? Am     Y luego       x?
e|--------------------------|------------|---------|-----
B|-----6-----6---6-----6---6|-----5-----5|---6---6-|-------
G|---7-----7---7-----7---7--|---5-----5--|--7--7---|--------
D|-7-----7---------7--------|-7-----7----|-7-------|------
A|--------------------------|------------|---------|-----
E|--------------------------|------------|---------|-----
(flauta 0:14)
e----------------------------------------- x2
B-----------------------------------------
G----10-------10-12-9----10---------------
D-12--------12---------12-------12-10-12--
A------12-12---------------12-12----------
E-----------------------------------------

e--------------------------------------------------------- x2
B----------------------------------11-11-11-9-9-9-8-9-8-6-
G-10--10-10-10--10-10-11-13-11-10-------------------------
D---------------------------------------------------------
A---------------------------------------------------------
E------------------------------------------------
  F                     Gm                     Dm      x2
e|---------------------|----------------------|---------|
B|----1----1---1-----1-|-3-----3---3-----3---3|-----6---|
G|*--2----2---2-----2--|-----3---3-----3---3--|---7----*|
D|*-3---3---------3----|---5---------5--------|-7------*|
A|---------------------|----------------------|---------|
E|---------------------|----------------------|---------|
  Dm                      x? Am     Y luego       x?
e|--------------------------|------------|---------|-----
B|-----6-----6---6-----6---6|-----5-----5|---6---6-|-------
G|---7-----7---7-----7---7--|---5-----5--|--7--7---|--------
D|-7-----7---------7--------|-7-----7----|-7-------|------
A|--------------------------|------------|---------|-----
E|--------------------------|------------|---------|-----
Cae la noche,
niebla eterna,
ocultarse ya la luz
frío llerno rompe hiela,
lagrimas del corazón,
  F                     Gm                     Dm      x2
e|---------------------|----------------------|---------|
B|----1----1---1-----1-|-3-----3---3-----3---3|-----6---|-
G|*--2----2---2-----2--|-----3---3-----3---3--|---7----*|
D|*-3---3---------3----|---5---------5--------|-7------*|
A|---------------------|----------------------|---------|
E|---------------------|----------------------|---------|
sueña la vida que si he de morir,
trozos de miedo, es duro vivir,
sueños de muerte, desvélate,
santa condena, auto de fé.

(1:25)
esto
(la octava de Dm)
 va hasta el minuto 2:29
       (1:30)       x9(2da guitarra)X9
e|----|-10-8-7-5-7-8-|-8-6-5-3-5-6-|
B|----|--------------|-------------|
G|-7x-|--------------|-------------|
D|-7x-|--------------|-------------|
A|-5x-|--------------|-------------|
E|----|--------------|-------------|
        T              T (ESTA ES LA TÉCNICA
 PERO NO ESTOY SEGURO DE QUE VAYAN E
N ESOS TRASTES SORRY LO DE  LICK )
(1:35)
E|-------5-------5---5---------------
B|-3-5-6---3-5-6---3---6-3-----------------
G|--------------------------------
D|-0-------------------------------

e|-------5-------5--5---|-------5-------5---5----|------5-------5--5-----
B|-3-5-6---3-5-6---3--6-|-3-5-6---3-5-6---3---6-3|3-5-6---3-5-6---5--6-3-
G|----------------------|------------------------|-----------------------
D|-0--------------------|-0----------------------|0---------------------
A|----------------------|------------------------|----------------------
E|----------------------|------------------------|----------------------
(1:47)
e|*----------------------|-------------------|---------------------|
B|*-3-5-6-5-3-5-6-10-6-3-|-3-5-6-5-3-5-6-10-5|-3-5-6-5-3-5-6-10-6-3|


e|-------------------*-|------------------------------------------------
B|-3-5-6-5-3-5-6-2-3-*-|-ESTO SE REPITE 2 VECES CON VERSO Y 2 SIN VERSO)-
G|---------------------|-------------------------------------------------
En nombre de la única religión
dictamos sentencia y te condenamos
a la piadosa purificación
del fuego y del dolor,
en manos de Dios tu debes poner
tu alma, tu hacienda y todos tus pecados,
acepta a Cristo y encomiéndate
pues pronto darás cuentas a él.

(2:29)
e|----------------------|--------------------|
B|-5-7-8-7-5-7-8-12-8-5-|-5-7-8-7-5-7-8-12-7-|
G|*---------------------|--------------------|
D|*---------------------|--------------------|
A|----------------------|--------------------|
E|----------------------|--------------------|
                                            X2
e|----------------------|---------------------|
B|-5-7-8-7-5-7-8-12-8-5-|-5-7-8-7-5-7-8-4-5--*|
G|----------------------|--------------------*|




(3:55)
e|*12-10-12-13-12~
|15-15-15-13-12-10-12-8-7-8-|12~-15-13-12-8-|12-10-8-7-8-7-5-*|
aqui es la misma cuerda  no es la segunda terminando el traste
12le sigues abajo peroen la misma cuerda.
ESTE REQUINTO  ES X2

(4:28)ES UN
PEQUEÑO
RIFF QUE SE OLLE DEBAJO
 DE LA VOZ
                   NO SE CUANTAS VECES VA ESTO
                  [8:26]   Y LUEGO VA
e|----------------|--------------|-------7----|
B|---------10-----|-----8---8---8|-----8---8--|
G|------------9---|---9---9---9--|---9-------9|
D|-9-11-12--------|-9------------|-9----------|
A|--------------12|--------------|------------|
E|----------------|--------------|------------|
USTEDES VEAN CONFORME A LO QUE LES DIEN EL PRINCIPIO
 MUÉVANLE LO DEMAS CONFORME A LOS TONOS DE ARRIBA.
VERSO:
Hoy la vida llueve penas,
Gotas de desesperación,
Mis lagrimas son ríos venas,
Desangrándome el corazón.

La memoria de una mujer son los besos que recibió,
En tus labios yo viviré y en tu olvido yo moriré.
Hoy mis lagrimas se quieren suicidar,
acurrucadas, morir en tu piel,
Han nacido secas, tienen sed,
Mi llanto se quiere morir...

(9:30)
e|-0-2-3~-7-5-3-2-3-2-0-----|-0-2-3-7-5-7-8-7~|7-8-10-12-7-5-3-5-7-5-3-|
B|----------------------2-0-|-----------------|------------------------|


e|-3~-5-7-5-3-2-0-|-------------
B|----------------|--------------
(9:45)LE HACES IGUAL QUE EN
EL INTRO PERO EN EL TRASTE #7
Y BUSCAS LOS CAMBIOS

                                   Aquí hay variaciones
(11:39)X5          X5          X5                    X2
e|-*-7-|-5-3-5-|-5-|-7-8--7-|-7-|-5-3-2-3-5-3-2-0-2-*-|-
B|-*-8-|-7-5-7-|-7-|-8-10-8-|-8-|-7-5-3-5-7-5-3-2-3-*-|-
En nombre de la libertad,
la fé en uno mismo y la paz,
quemad las banderas, no a la religión,
y que tu Dios sea canción compuesta con el corazón
y que tu país sea a donde te lleven los pies.



(11:56)gaita .....gaita?
e|-------5-7-8-7-5-7---------------------7-8-7-|
B|-*-7-8-------------8-8-7-8-10-8~--8-10-------|
G|-*-------------------------------------------|
Cuando se repite dos veces seguidas el mismo numero te esperas
Escucha la canción detenidamente para que halles los tiempos.
                                         X2
e|-----5-7-8-7-5-7--------------10-8-7~---|-
B|-7-8-------------8-8-7-8-10-8---------*-|-
G|--------------------------------------*-|
(12:14)
e|*7-8-7-5-7-------------------7-8-7|-
B|*----------8-8-7-8-10-8-8-10------|-
G|----------------------------------|-
                                     X2
e|----5-7-8-7-5-7--------------10-8-7-*|---------
B|7-8-------------8-8-7-8-10-8--------*|--------
G|-------------------------------------|-

Esto es por 2(lo del 12:14)



(12:39)
e|------------------------(-todo lo que va aquí esta arriba--)
B|-5-7-8-7-5-7-8-12-8-5...(--chequenlo.----------------------)--
G|------------------------(---------------.......------------)-
D|------------------------(----------------------------------)--
A|------------------------(----------------------------------)----
E|------------------------(----------------------------------)----
Y luego va esto(12:58)
e|-*-5-7-8-7-5-7-8-12-8-5|5-7-8-7-5-7-8-12-7|-------
B|-*---------------------|------------------|------
                                        X2
e|-5-7-8-7-5-7-8-12-8-5|-5-7-8-7-5-7-8-4-5*|----------
B|---------------------|------------------*|------

(15:06)                                      (15:13)
E|--------|-------|-------|-----------------|---------------|-
B|--------|-------|-------|-----------------|---------------|-
G|-7-7-10~|-5-5-9~|9-9-12~|12-12-16~12-16-12|-7-7-10~7-10-7-|
D|--------|-------|-------|-----------------|---------------|
A|-5-5-8~-|-3-3-7~|7-7-10~|10-10-14~10-14-10|-5-5--8~5--8-5-|
E|--------|-------|-------|-----------------|---------------|--
       esta es la segunda guitarra
        Si va en la quinta cuerda.

E|------------|-------------|-----------------|----
B|------------|-------------|-----------------|----
G|-5-5-9~5-9-5|9-9-12~9-12-9|12-12-16~12-16-12|-----
D|------------|-------------|-----------------|----
A|-3-3-7~3-7-3|7-7-10~7-10-7|10-10-14~10-14-10|----
E|------------|-------------|-----------------|----
(15:40)
e|12-10-13-12~12-13-15-13-12-10-12-13~|12-10-13-12~12-13-15-13-12-10~~~|

e|12-10-13-12~12-13-15-13-12-10-12-13~|12~~~10-------10-----------|
B|------------------------------------|--------13-12----13-12-10~~|
(16:26)
e|-12~10-12-13-12~15-15-15-13-12-10-------------------
B|----------------------------------------------------
G|----------------------------------------------------
D|---------------------------------(9)(5)(4)(5~)-2da guitarra
A|----------------------------------7--3--2--3~------
E|-----------------------------------------------------

Esta es la letra
LA CANTATA DEL DIABLO
Cae la noche,
niebla eterna,
ocultarse ya la luz
frío llerno rompe hiela,
lagrimas del corazón,
sueña la vida que si he de morir,
trozos de miedo, es duro vivir,
sueños de muerte, desvelate,
santa condena, auto de fé.

En nombre de la única religión
dictamos sentencia y te condenamos
a la piadosa purificación
del fuego y del dolor,
en manos de Dios tu debes poner
tu alma, tu hacienda y todos tus pecados,
acepta a Cristo y encomiendate
pues pronto darás cuentas a él.

Diabulus in Gaia, Missit me Dominus.

Quisiera ser el viento para poder huir de mí,
que calle el silencio, enmudezca el terror,
quisiera no morir.

Me invantaré otra vida,
mis sueños decoraré
y los cubriré de tus besos -pensó-
quemad mi alma también

Reniegas de Satán de sus obras y sus vicios,
de la necromancia de la magia y del tarot,
yo soy la virtud de la Iglesia y sus principios,
si no te arrepientes tu alma se condenará.

Hoy la libertad se ha quedado dormida y en silencio,
Hoy la libertad ha cerrado por defunción.
Hoy la libertad se ha muerto de pena y melancolía,
Hoy no hay libertad, Hoy Dios no está aquí ni vendrá.

Quisiera ser olvido para nunca recordar
Quisiera ser brisa y así acariciar la vida una vez más
Que fría es la promesa de otra vida junto a Dios
Si en esta ni estuvo ni supo de él, la verá su ataúd
Antes de morir y que el fuego haga su oficio,
Acepteis a cristo, a su iglesia y su poder.
Renuncieis al Dios que ama la naturaleza,
Gaia son los mares del pecado y del terror.

Hoy la libertad se ha quedado dormida y en silencio,
Hoy la libertad ha cerrado por defunción.
Hoy la libertad se ha muerto de pena y melancolía,
Hoy no hay libertad, Hoy Dios no está aquí ni vendrá.

Hoy la vida llueve penas,
Gotas de desesperación,
Mis lagrimas son ríos venas,
Desangrandome el corazón.

La memoria de una mujer son los besos que recibió,
En tus labios yo viviré y en tu olvido yo moriré.

Hoy mis lagrimas se quieren suicidar,
acurrucadas, morir en tu piel,
Han nacido secas, tienen sed,
Mi llanto se quiere morir...

Como un beso prometido a tu alma es mi voz,
soy lo muerto y lo vivido, soy la calma soy tu Dios,
cierra los ojos y te llevaré donde los sueños se hacen canción,
la vida duele, te curaré, duérmete y sueña, te acuna mi voz.

Hoy mis lagrimas se quieren suicidar,
acurrucadas, morir en tu piel,
Han nacido secas, tienen sed,
Mi llanto hoy se quiere morir...

Si tus lagrimas se quieren suicidar,
guardalas pues vas a llorar,
llorarás océanos de Paz,
duermete ya no hay... ¡¡Dolor!!

En nombre de la libertad,
la fé en uno mismo y la paz,
quemad las banderas, no a la religión,
y que tu Dios sea canción compuesta con el corazón
y que tu país sea a donde te lleven los pies.

Missit me dominus,
Missit me diabulus,
Missit me Satanás.

Ahora al fin soy aire y mi maldición caerá.
El fin de esta iglesia muy pronto vendrá,
MI voz despertará.

Hoy la libertad se ha quedado dormida y en silencio,
Hoy la libertad ha cerrado por defunción.
Hoy la libertad se ha muerto de pena y melancolía,
Hoy no hay libertad, Hoy Dios no está aquí ni vendrá.

Padre nuestro, de todos nosotros,
de los pobres, de los sin techo,
de los marginados y de los desprotegidos,
de los desheredados y de los dueños de la miseria,
de los que te siguen y de los que en tí... Ya no creemos.

Baja de los cielos pues aquí está el infierno,
baja de tu trono, pues aquí hay guerras, hambre, injusticias,
no hace falta que seas uno y trino,
con uno solo que tenga ganas de ayudar nos bastaría.

¿Cuál es tu reino?,
¿El vaticano?,
¿La banca?,
¿La alta política?

Nuestro reino es Nigeria,
Etiopía, Colombia, Hiroshima,
el pan nuestro de cada día
son las violaciones,
la violencia de género,
la pederastía, las dictaduras,
el cambio climático.

En la tentación caigo diario,
no hay mañana en la que no esté tentado
de crear a un Dios humilde, justo,
un Dios que esté en la Tierra, en los valles, los ríos,
un Dios que viva la lluvia,
que viaje a través del viento
y acaricie nuestra alma,
un Dios de los tristes, de los homosexuales,
un Dios más humano,
un Dios que no castigue, que enseñe,
un Dios que no amenace, que proteja,
que si me caigo me levante,
que si me pierdo, me tiende a su mano,
un Dios que si yerro no me culpe
y que si dudo me entienda,
pues para eso me dotó de inteligencia,
para dudar de todo.

Padre nuestro de todos nosotros,
¿Por qué nos has olvidado?,
Padre nuestro, ciego, sordo y desocupado,
¿Por qué nos has abandonado?



Eso fue todo


Esta es una buenísima canción de los magos de oz
Dudas o lo que seas mándenmelo a mi correo
Ya lo cambie ahora es
Master_07_mago@hotmail.com
Espero que les guste a se me olvidaba la flauta de
arriba al principio se la copie a la otra tablatura
luego les mando otras cosas y ¡¡¡¡¡viva los negros¡¡¡¡¡¡¡
y México colombia CHILE y el vaticano
saludos a todos los que les gusta este gran grupo.
Envía el tono de "La Cantata del Diablo (Missit me Dominus)" a tu celular/móvil
Este fichero es trabajo propio de su transcriptor y representa su interpretación personal de la canción. El material contenido en esta página es
para exclusivo uso privado, por lo que se prohibe su reproducción o retransmisión, así como su uso para fines comerciales.
© LaCuerda.net · Aviso Legal · Privacidad