Tablatura para Guitarra de Mago De Oz: Fiesta Pagana
Conexión · Inscripción
Letras y Acordes
Pantalla Completa
Imprimir
Versión Texto
Añadir Favorito
Otras Versiones

Mostrar Diagramas
Desfile Automático
Manipular Acordes
Formato del Texto

Mago De Oz
Fiesta Pagana(TAB)
calidad:
mdoz0169
AUTOR: Txus
ALBUM: Finisterra (2000)
Enviado por Diego
Hola q tal... bueno aqui les dejo la forma correcta
De como tocar esta cancion.
Los envios anteriores no estan muy bien hechos, sobretodo
Los tabs de las guitarras. Por eso aqui les dejo el
Tab correcto. Saquenla pues.



Intro con la flauta

Rasguear una sola vez en este orden: (Guitarra acustica)
SIm - SIm - LA - RE

Ahora rasguear varias veces: (Guitarra acustica)
SIm - SIm - LA - LA - SIm - SIm - LA - RE


Ahora con distorcion:

           SI5                               LA5
1|-----------------------------------------------------------------|
2|-----------------------------------------------------------------|
3|-----------------------------------------------------------------|
4|-----------------------------------------------------------------|
5|-9---9---9---9---9---9---9---9---7---7---7---7---7---7---7---7---|
6|-7-7-7-7-7-7-7-7-7-7-7-7-7-7-7---5-5-5-5-5-5-5-5-5-5-5-5-5-5-5---|

           SI5                         LA5            RE5
1|-----------------------------------------------------------------|
2|-----------------------------------------------------------------|
3|-----------------------------------------------------------------|
4|-------------------------------------------------7---7---7---7---|
5|-9---9---9---9---9---9---9---9---7---7---7---7---5-5-5-5-5-5-5---|
6|-7-7-7-7-7-7-7-7-7-7-7-7-7-7-7---5-5-5-5-5-5-5-------------------|

                                SI5 LA5
1|---------------------------------------|
2|---------------------------------------|
3|---------------------------------------|
4|---------------------------------------|
5|-------------------------------9---7---|
6|-7-7-7-7-7-7-7-7-7-7-7-7-7-7---7---5---|
   ----------p.m--------------

   Cuando despiertes un dia y sientas que no puedes mas
   SI5           FA#5          MI5             FA#5
1|--------------------------------------------------------|
2|--------------------------------------------------------|
3|--------------------------------------------------------|
4|--------------11---11--------9---9---------11---11------|
5|-9---9---------9-9--9--------7-7-7----------9-9--9------|
6|-7-7-7--------------------------------------------------|

   Que en el nombre del de arriba tu vida van a manejar
   SI5               FA#5             MI5            FA#5
1|------------------------------------------------------------|
2|------------------------------------------------------------|
3|------------------------------------------------------------|
4|------------------11---11----------9---9----------11--------|
5|-9---9-------------9-9--9----------7-7-7-----------9--------|
6|-7-7-7------------------------------------------------------|

  Si sientes que el miedo se apega a tu piel
  Por ser comunero y justicia querer
    RE5          LA5          LA5           SI5
1|------------------------------------------------------|
2|------------------------------------------------------|
3|------------------------------------------------------|
4|-7----------------------------------------------------|
5|-5-5-5-5-5---7-----------7----------------9-----------|
6|-------------5-5-5-5-5---5-5-5-5-5--------7-7-7-7-7---|
     --p.m--     --p.m--       ---p.m---      --p.m-

   Si te rindes hermano por ti nunca pensaras
    SI5         MI5           RE5  DO#5  SI5
1|---------------------------------------------|
2|---------------------------------------------|
3|---------------------------------------------|
4|-------------9---------------7-----6-----4---|
5|-9-----------7-7-7-7-7-------5-----4-----2---|
6|-7-7-7-7-7-----------------------------------|
     --p.m--     --p.m-

Junto con la flauta:

     SI5           MI5   LA5 SI5     SI5           MI5  SI5 LA5
1|-------------------------------|-----------------------------|
2|-------------------------------|-----------------------------|
3|-------------------------------|-----------------------------|
4|-----------------9---9---------|-----------------9---9-------|
5|-9---9---9---9---7-7-7---7-9---|-9---9---9---9---7-7-7---9-7-|
6|-7-7-7-7-7-7-7-----------5-7---|-7-7-7-7-7-7-7-----------7-5-|(X2)

  Cuando vayan a pedirte los diezmos a fin de mes
  LA5  SI5         FA#5         MI5         FA#5
1|---------------------------------------------------|
2|---------------------------------------------------|
3|---------------------------------------------------|
4|-----------------11---11------9---9------11---11---|
5|-7---9---9--------9-9--9------7-7-7-------9-9--9---|
6|-5---7-7-7-----------------------------------------|

   y la santa inquisicion te invite a confezar
   SI5          FA#5           MI5            FA#5
1|--------------------------------------------------------|
2|--------------------------------------------------------|
3|--------------------------------------------------------|
4|--------------11---11--------9---9---------11-----------|
5|-9---9---------9-9--9--------7-7-7----------9-----------|
6|-7-7-7--------------------------------------------------|

  Por eso amigo tu alza la voz, di que nunca pediste opinion
   RE5          LA5          LA5           SI5
1|------------------------------------------------------|
2|------------------------------------------------------|
3|------------------------------------------------------|
4|-7----------------------------------------------------|
5|-5-5-5-5-5---7-----------7----------------9-----------|
6|-------------5-5-5-5-5---5-5-5-5-5--------7-7-7-7-7---|
     --p.m--     --p.m--    ---p.m---          --p.m-

  si es verdad que existe un Dios, que trabaje de sol a sol
    SI5         MI5           RE5  DO#5  SI5
1|---------------------------------------------|
2|---------------------------------------------|
3|---------------------------------------------|
4|-------------9---------------7-----6-----4---|
5|-9-----------7-7-7-7-7-------5-----4-----2---|
6|-7-7-7-7-7-----------------------------------|
     --p.m--     --p.m--

   Ponte en pie, alza el puño y ven a la fiesta pagana
  SI5                   LA5         SOL5
1|-----------------------------------------------------------|
2|-----------------------------------------------------------|
3|-----------------------------------------------------------|
4|-----------------------------------------------------------|
5|-9---------------------7-----------5-----------------------|
6|-7-------------7-7-7---5---5-5-5---3---------------3-3-3---|
                 -p.m-       -p.m-                   -p.m-

  en la hoguera hay de beber
         FA#5      MI5 RE5   DO#5
1|--------------------------------|
2|--------------------------------|
3|--------------------------------|
4|--------11--------9----7----6---|
5|---------9--------7----5----4---|
6|--------------------------------|

   De la misma condicion no es el pueblo y un señor
   Ellos tienen el clero...
    SI5               LA5            SOL5
1|-------------------------------------------------|
2|-------------------------------------------------|
3|-------------------------------------------------|
4|-------------------------------------------------|
5|-9---9---9---9---7---7---7---7---5---5---5---5---|
6|-7-7-7-7-7-7-7---5-5-5-5-5-5-5---3-3-3-3-3-3-3---|

     y nosotros nuestro sudor
         FA#5  MI5 RE5 DO#5
1|------------------------------|
2|------------------------------|
3|------------------------------|
4|---------11---9---7---6-------|
5|----------9---7---5---4-------|
6|------------------------------|

Junto con la flauta:

          SI5                               LA5
1|-----------------------------------------------------------------|
2|-----------------------------------------------------------------|
3|-----------------------------------------------------------------|
4|-----------------------------------------------------------------|
5|-9---9---9---9---9---9---9---9---7---7---7---7---7---7---7---7---|
6|-7-7-7-7-7-7-7-7-7-7-7-7-7-7-7---5-5-5-5-5-5-5-5-5-5-5-5-5-5-5---|

           SI5                         LA5            RE5
1|-----------------------------------------------------------------|
2|-----------------------------------------------------------------|
3|-----------------------------------------------------------------|
4|-------------------------------------------------7---7---7---7---|
5|-9---9---9---9---9---9---9---9---7---7---7---7---5-5-5-5-5-5-5---|
6|-7-7-7-7-7-7-7-7-7-7-7-7-7-7-7---5-5-5-5-5-5-5-------------------|

                                SI5 LA5
1|---------------------------------------|
2|---------------------------------------|
3|---------------------------------------|
4|---------------------------------------|
5|-------------------------------9---7---|
6|-7-7-7-7-7-7-7-7-7-7-7-7-7-7---7---5---|
   ----------p.m--------------

   Si no hay pan para los tuyos, si ves muy gordo al abad
  SI5                            FA#5/MI5
1|-------------------------------------------------------|
2|-------------------------------------------------------|
3|-------------------------------------------------------|
4|-------------------------------11/9--------------------|
5|-9------------------------------9/7--------------------|
6|-7-----------------------------------------------------|

  Si su virgen viste de oro... desnudala
  LA5/SI5                 MI5       FA#5
1|------------------------------------------|
2|------------------------------------------|
3|------------------------------------------|
4|--------------------------9--------11-----|
5|-7/9----------------------7---------9-----|
6|-5/7--------------------------------------|

  Como van a silenciar al gilguero o al canario
   RE5          LA5          LA5           SI5
1|------------------------------------------------------|
2|------------------------------------------------------|
3|------------------------------------------------------|
4|-7----------------------------------------------------|
5|-5-5-5-5-5---7-----------7----------------9-----------|
6|-------------5-5-5-5-5---5-5-5-5-5--------7-7-7-7-7---|
     --p.m--     --p.m--     ---p.m---         --p.m-

  Si no hay carcel ni tumba para el canto libertario
    SI5         MI5           RE5  DO#5  SI5
1|---------------------------------------------|
2|---------------------------------------------|
3|---------------------------------------------|
4|-------------9---------------7-----6-----4---|
5|-9-----------7-7-7-7-7-------5-----4-----2---|
6|-7-7-7-7-7-----------------------------------|
     --p.m--     --p.m--

   Ponte en pie, alza el puño y ven a la fiesta pagana
  SI5                   LA5         SOL5
1|-----------------------------------------------------------|
2|-----------------------------------------------------------|
3|-----------------------------------------------------------|
4|-----------------------------------------------------------|
5|-9---------------------7-----------5-----------------------|
6|-7-------------7-7-7---5---5-5-5---3---------------3-3-3---|
                 -p.m-       -p.m-                   -p.m-

  en la hoguera hay de beber
         FA#5      MI5 RE5   DO#5
1|--------------------------------|
2|--------------------------------|
3|--------------------------------|
4|--------11--------9----7----6---|
5|---------9--------7----5----4---|
6|--------------------------------|

  De la misma condicion no es el pueblo y un señor
   Ellos tienen el clero...
    SI5               LA5            SOL5
1|-------------------------------------------------|
2|-------------------------------------------------|
3|-------------------------------------------------|
4|-------------------------------------------------|
5|-9---9---9---9---7---7---7---7---5---5---5---5---|
6|-7-7-7-7-7-7-7---5-5-5-5-5-5-5---3-3-3-3-3-3-3---|

     y nosotros nuestro sudor
         FA#5  MI5 RE5 DO#5
1|------------------------------|
2|------------------------------|
3|------------------------------|
4|---------11---9---7---6-------|
5|----------9---7---5---4-------|
6|------------------------------|

Junto con la flauta:

     SI5           MI5   LA5 SI5     SI5           MI5  SI5 LA5
1|-------------------------------|-----------------------------|
2|-------------------------------|-----------------------------|
3|-------------------------------|-----------------------------|
4|-----------------9---9---------|-----------------9---9-------|
5|-9---9---9---9---7-7-7---7-9---|-9---9---9---9---7-7-7---9-7-|
6|-7-7-7-7-7-7-7-----------5-7---|-7-7-7-7-7-7-7-----------7-5-|(X2)


Nota: “El solo lo saque a mi modo, no esta del todo correcto
       Pero suena bien y espero que les sirva”

Solo:
1|------------------------------------------------------12b-|
2|----------------------------------------------------------|
3|-----------7---7-10-9-7-9b(10)-9(10)-9---7----------------|
4|-------7-9---9-----------------------------9b-7-----------|
5|----7-9-----------------------------------------9b--------|
6|-7-9------------------------------------------------------|
  ---p.m---

1|-------------------------------------------|
2|------------12b----------------------------|
3|-9b---7----------10-9-7------7-10b-9-7-----|
4|--------9---------------9-7-9----------9---|
5|-------------------------------------------|
6|-------------------------------------------|

1|--------------------------------------|
2|----------7h8p7-------6---------------|
3|-------7-9-----9-7------9-7-9p7---7---|
4|----7-9-----------9-------------9-----|
5|-7-9----------------------------------|
6|--------------------------------------|

  ----------------esto tocarlo muy rapido--------------

1|---------------------------------7-10p7--------10-12---|
2|---------------------7---------8--------8----8---------|
3|-------7---------7-9---9-7---9-------------9-----------|
4|---7-9---9-7---9---------------------------------------|
5|-9-----------------------------------------------------|
6|-------------------------------------------------------|

1|-14-14-14-14-14-14-14-17-15-14----------------------------------------|
2|------------------------------17-15---15-15h17-15-14---14-14h15-14-12-|
3|----------------------------------------------------------------------|
4|----------------------------------------------------------------------|
5|----------------------------------------------------------------------|
6|----------------------------------------------------------------------|

1|-14-14-14-14-14-14-14-17-15-14----------------------------------------|
2|------------------------------17-15---15-15h17-15-14---14-14h15-14-12-|
3|----------------------------------------------------------------------|
4|----------------------------------------------------------------------|
5|----------------------------------------------------------------------|
6|----------------------------------------------------------------------|

Parte acustica:

RE - LA - LA - SIm - SIm - MIm - SIm - SIm (X2)

  Ponte en pie, alza el puño y ven a la fiesta pagana
  SI5                   LA5         SOL5
1|-----------------------------------------------------------|
2|-----------------------------------------------------------|
3|-----------------------------------------------------------|
4|-----------------------------------------------------------|
5|-9---------------------7-----------5-----------------------|
6|-7-------------7-7-7---5---5-5-5---3---------------3-3-3---|
                 -p.m-       -p.m-                   -p.m-

  en la hoguera hay de beber
         FA#5      MI5 RE5   DO#5
1|--------------------------------|
2|--------------------------------|
3|--------------------------------|
4|--------11--------9----7----6---|
5|---------9--------7----5----4---|
6|--------------------------------|

   De la misma condicion no es el pueblo y un señor
   Ellos tienen el clero...
    SI5               LA5            SOL5
1|-------------------------------------------------|
2|-------------------------------------------------|
3|-------------------------------------------------|
4|-------------------------------------------------|
5|-9---9---9---9---7---7---7---7---5---5---5---5---|
6|-7-7-7-7-7-7-7---5-5-5-5-5-5-5---3-3-3-3-3-3-3---|

     y nosotros nuestro sudor
         FA#5  MI5 RE5 DO#5
1|------------------------------|
2|------------------------------|
3|------------------------------|
4|---------11---9---7---6-------|
5|----------9---7---5---4-------|
6|------------------------------|

  Ponte en pie, alza el puño y ven a la fiesta pagana
  SI5                   LA5         SOL5
1|-----------------------------------------------------------|
2|-----------------------------------------------------------|
3|-----------------------------------------------------------|
4|-----------------------------------------------------------|
5|-9---------------------7-----------5-----------------------|
6|-7-------------7-7-7---5---5-5-5---3---------------3-3-3---|
                 -p.m-       -p.m-                   -p.m-

  en la hoguera hay de beber
         FA#5      MI5 RE5   DO#5
1|--------------------------------|
2|--------------------------------|
3|--------------------------------|
4|--------11--------9----7----6---|
5|---------9--------7----5----4---|
6|--------------------------------|

   De la misma condicion no es el pueblo y un señor
   Ellos tienen el clero...
    SI5               LA5            SOL5
1|-------------------------------------------------|
2|-------------------------------------------------|
3|-------------------------------------------------|
4|-------------------------------------------------|
5|-9---9---9---9---7---7---7---7---5---5---5---5---|
6|-7-7-7-7-7-7-7---5-5-5-5-5-5-5---3-3-3-3-3-3-3---|

     y nosotros nuestro sudor
         FA#5  MI5 RE5 DO#5
1|------------------------------|
2|------------------------------|
3|------------------------------|
4|---------11---9---7---6-------|
5|----------9---7---5---4-------|
6|------------------------------|

                           ¡CABRONES!
           SI5                               LA5
1|-----------------------------------------------------------------|
2|-----------------------------------------------------------------|
3|-----------------------------------------------------------------|
4|-----------------------------------------------------------------|
5|-9---9---9---9---9---9---9---9---7---7---7---7---7---7---7---7---|
6|-7-7-7-7-7-7-7-7-7-7-7-7-7-7-7---5-5-5-5-5-5-5-5-5-5-5-5-5-5-5---|

   Ahh...   Ahh...   Ahh...   Ahh...
           SI5                         LA5            RE5
1|-----------------------------------------------------------------|
2|-----------------------------------------------------------------|
3|-----------------------------------------------------------------|
4|-------------------------------------------------7---7---7---7---|
5|-9---9---9---9---9---9---9---9---7---7---7---7---5-5-5-5-5-5-5---|
6|-7-7-7-7-7-7-7-7-7-7-7-7-7-7-7---5-5-5-5-5-5-5-------------------|

   Ahh...   Ahh...   Ahh...   Ahh...
          SI5                               LA5
1|-----------------------------------------------------------------|
2|-----------------------------------------------------------------|
3|-----------------------------------------------------------------|
4|-----------------------------------------------------------------|
5|-9---9---9---9---9---9---9---9---7---7---7---7---7---7---7---7---|
6|-7-7-7-7-7-7-7-7-7-7-7-7-7-7-7---5-5-5-5-5-5-5-5-5-5-5-5-5-5-5---|

           SI5                         LA5            RE5
1|-----------------------------------------------------------------|
2|-----------------------------------------------------------------|
3|-----------------------------------------------------------------|
4|-------------------------------------------------7---7---7---7---|
5|-9---9---9---9---9---9---9---9---7---7---7---7---5-5-5-5-5-5-5---|
6|-7-7-7-7-7-7-7-7-7-7-7-7-7-7-7---5-5-5-5-5-5-5-------------------|

     SI5  SI5  DO5                   SI5
1|-----------------------------------------|
2|-----------------------------------------|
3|-----------------------------------------|
4|----4----4----5-------------2-------4----|
5|----2----2----3-------2-4-5---5-4---2----|
6|-----------------------------------------|

Espero que les haya parecido buena la transcripcion.
Sugerencias a mi e-mail diego_mg1589@hotmail.com

Diego Mogollón G. Lima - Perú - Comas
Envía el tono de "Fiesta Pagana" a tu celular/móvil
Este fichero es trabajo propio de su transcriptor y representa su interpretación personal de la canción. El material contenido en esta página es
para exclusivo uso privado, por lo que se prohibe su reproducción o retransmisión, así como su uso para fines comerciales.
© LaCuerda.net · Aviso Legal · Privacidad