Tablatura para Guitarra de Mago De Oz: El templo del adiós
Conexión · Inscripción
Letras y Acordes
Pantalla Completa
Imprimir
Versión Texto
Añadir Favorito
Otras Versiones

Mostrar Diagramas
Desfile Automático
Manipular Acordes
Formato del Texto

Mago De Oz
El templo del adiós(TAB)
calidad:
mdoz0121
AUTOR: Ritchie Blackmore, Txus
ALBUM: La Leyenda de la Mancha
Enviado por Javi
|================madesmania.com=================|
| MÄGO DE OZ - El Templo Del Adiós            |
| Tabulado para Guitarra                  |
| Modificaciones a: tabulados@madesmania.com      |
|===========http://www.madesmania.com===========|

 GRUPO: Mägo De Oz
 DISCO: La Leyenda De La Mancha
 TEMA : El Templo del Adiós
 Instrumento  : Guitarra
 Tabulado por : Jesus Ruiz-Ayúcar (narko49@hotmail.com)



Símbolos
--------
h ---> Hammeron
b ---> bend
p ---> pullof
   A                F             G                A
|----------------------------------------------------------------------|
|-5--5--3-5-3---3----------------3--3--3-5-3---3-----------------------|
|-------------5---5-2------------------------5---5-2-------------------|
|----------------------------------------------------------------------|
|----------------------------------------------------------------------|
|----------------------------------------------------------------------|
                                                           
  A                G              F                A
|--------------------------------------------------------------0-------|
|-5--5--3-5-3---3----------------3--3--3-5-3---3-----------0-1---3-0-1-|
|-------------5---5-2------------------------5---5-2-2-0-2-------------|
|----------------------------------------------------------------------|
|----------------------------------------------------------------------|
|----------------------------------------------------------------------|
Riff 1
|---------0-------|
|-----0-1---3-0-1-|
|-0-2-------------|
|-----------------|
|-----------------|
|-----------------|
| 0:24 |
A                    G                     F           A
Cuentan que estando cerca el final de su viaje vio llegar
F                  G              A                 Riff 1
una silueta, que con el sol su armadura hacía brillar.
A              G                     E            A
Cuentan que su rostro nunca vio pero su voz anunció:
F                       G               A
'Soy el Caballero de la Blanca Luna y a vos he venido a buscar'.
| 0:48 |
F                                               A
Todo lo que empieza tiene un fin, y es la razón de la vida,
G                                           A
todo lo que has aprendido de amistad y amor en tu alma quedará.
F                                               A
Ya todo está hecho y ahora te aguarda mi reino: Duerme, duerme.
G                   F                             E
Monta a Rocinante y emprended el camino hacia la luz
F             G    
es tiempo de regresar.
  A                F             G                 A
|----------------------------------------------------------------------|
|-5--5--3-5-3---3----------------3--3--3-5-3---3-----------------------|
|-------------5---5-2------------------------5---5-2-------------------|
|----------------------------------------------------------------------|
|----------------------------------------------------------------------|
|----------------------------------------------------------------------|
                                                           
  A                F              G                A
|--------------------------------------------------------------0-------|
|-5--5--3-5-3---3----------------3--3--3-5-3---3-----------0-1---3-0-1-|
|-------------5---5-4------------------------5---5-2-2-0-2-------------|
|----------------------------------------------------------------------|
|----------------------------------------------------------------------|
|----------------------------------------------------------------------|
| 1:40 |
A                G                       F              A
Cuentan que cuando no puedes más y tus fuerzas ver marchar
F                  G                    A                 Riff 1
hay algo mágico en tu interior que te da alas para luchar.
A               G                     E           A
Cuentan que su rostro nunca vio pero su voz anunció:
F                        G              A
'Soy el Caballero de la Blanca Luna y ya es tiempo de descansar'.
F                                               A
Ya todo está hecho y ahora te aguarda mi reino: Duerme, duerme.
G                        F                       E
Monta a Rocinante y emprended el camino hacia la luz
F               G      
hacia el templo del adiós.
| 2:19 |
  A                F             G                 A
|----------------------------------------------------------------------|
|-5--5--3-5-3---3----------------3--3--3-5-3---3-----------------------|
|-------------5---5-2------------------------5---5-2-------------------|
|----------------------------------------------------------------------|
|----------------------------------------------------------------------|
|----------------------------------------------------------------------|
                                                           
  A                G             F                E
|----------------------------------------------------------------------|
|-5--5--3-5-3---3----------------3--3--3-5-3---3-----------------------|
|-------------5---5-4------------------------5---5-4-------------------|
|----------------------------------------------------------------------|
|----------------------------------------------------------------------|
|----------------------------------------------------------------------|
| 2:43 |
Este punteo se toca con slide (este tubito metalico que se pone en la
mano izquierda)
 A  F               A        F             A     G         F        E         
|------------------------------------------------------------------------|
|-6/8\--6/8/10-13\--5/10-10--8/10/13-15-15/17--17\15-15--15/13-13--13\12-|
|------------------------------------------------------------------------|
|------------------------------------------------------------------------|
|------------------------------------------------------------------------|
|------------------------------------------------------------------------|
      A         F       A                  F          A         G
|------------------------------------------------------------------------|
|12\-/13-12/13--6-6/8-10/13-15/17-15/17\15-13---13\----------------------|
|---------------------------------------------------5-5/7--7/9\----------|
|---------------------------------------------------------------/7-7\5---|
|------------------------------------------------------------------------|
|------------------------------------------------------------------------|
       F          E
|-------------------|
|----------15\12-12-|
|-5-5/7/15----------|
|-------------------|
|-------------------|
|-------------------|
F                                               A
Ya todo está hecho y ahora te aguarda mi reino: Duerme, duerme.
G                                           A
todo lo que has aprendido de amistad y amor en tu alma quedará.
F                                               A
Ya todo está hecho y ahora te aguarda mi reino: Duerme, duerme.
G                        F                       E
Monta a Rocinante y emprended el camino hacia la luz
F                                               A
Todo lo que empieza tiene un fin, y es la razón de la vida,
G                        F                       E
Monta a Rocinante y emprended el camino hacia la luz
F               G      
hacia el templo del adiós.
  A                F             G                 A
|----------------------------------------------------------------------|
|-5--5--3-5-3---3----------------3--3--3-5-3---3-----------------------|
|-------------5---5-2------------------------5---5-2-------------------|
|----------------------------------------------------------------------|
|----------------------------------------------------------------------|
|----------------------------------------------------------------------|
                                                           
  A                G              F                A
|----------------------------------------------------------------------|
|-5--5--3-5-3---3----------------3--3--3-5-3---3-----------------------|
|-------------5---5-4------------------------5---5-4-------------------|
|----------------------------------------------------------------------|
|----------------------------------------------------------------------|
|----------------------------------------------------------------------|
| 4:33 |
| Guitarra 1             h p p                                  harmonicos
|-----------------5-7-8-7-8-7-5-----------------------------0------12--|
|---------------5---------------5-------------------------0--------12--|
|-------------5-------------------5---------------------1----------12--|
|---------3/7-----------------------7-----------------2------------12--|
|-------------------------------------8-7-2---------2------------------|
|-------------------------------------------4-1-0-4--------------------|
|
| Guitarra 2                                                    harmonicos
|-1~------------------------------------------------0~-------------12--|
|-1~------------------------------------------------0~-------------12--|
|-2~------------------------------------------------1~-------------12--|
|-3~------------------------------------------------2~-------------12--|
|-3~------------------------------------------------2~-----------------|
|-1~------------------------------------------------0~-----------------|
Bueno, mi segunda cancion. Creo que no est  del todo mal, pero hay ke
kurrarselo mas ¨no? Bueno, me dejo de rollos pa llenar hueco
Mi mail es: narko49@hotmail.com
Stay Heavy!


------> Podeis mandar vuestras sugerencias a madesmania.com
Envía el tono de "El templo del adiós" a tu celular/móvil
Este fichero es trabajo propio de su transcriptor y representa su interpretación personal de la canción. El material contenido en esta página es
para exclusivo uso privado, por lo que se prohibe su reproducción o retransmisión, así como su uso para fines comerciales.
© LaCuerda.net · Aviso Legal · Privacidad