Tablatura para Bajo de Mago De Oz: El cantar de la luna oscura
Conexión · Inscripción
Letras y Acordes
Pantalla Completa
Imprimir
Versión Texto
Añadir Favorito
Otras Versiones

Mostrar Diagramas
Desfile Automático
Formato del Texto

Mago De Oz
El cantar de la luna oscura(BAJ)
calidad:
mdoz0077
AUTOR: Chema, Mägo de Oz
ALBUM: Jesús De Chamberí
Enviado por don_buho
HOLASSS ke onda chamakos, hize esta transcripcion, por que no hay ningun ab para bajo d
esta cancion. Yo se que no esta muy bien pero mas que nada lo hize para que alguien se
anime a corregirla. un saludo a todos y hay ta' la rola.


INTRO

G|----------------------------------------------
D|--------------------------4---------4---------  X 2
A|--8--5--5--7--8--5--5--7-----7--5--7---7--5--7
E|----------------------------------------------

G|-------------
D|--44---------
A|------8---5*-
E|-------------

ENTRA EL VIOLIN (NO HAY BAJO)

AQUI NO C DISTINGUE EL BAJO, PERO TOCO JUNTO CON LOS RASGUEOS D LA GUITARRA
(STOY KSI SEGURO QUE NO ESTA BIEN ESTO)

ENTRA JUNTO CON LA GUITARRA

PARTE 1
G|---------------
D|---------------
A|---3--55--3--55
E|---------------

TERMINA DE SONAR EL VIOLIN
PARTE 2
G|------------------
D|-------7--5-------   X 2
A|--5--7--------7--5
E|------------------

VERSO
G|-----------------------------
D|-----------------------------
A|---5--5---3--3----3--3---5--5
E|-----------------------------

G|--------------------------------------
D|--------------------------------------  X ? VECES
A|---5--55-5--3--33-3---3-33-3---5--55-5
E|--------------------------------------

G|---------------
D|---------------
A|--3333333333---
E|---------------

CORO

G|----------------------------------------------
D|------7*7--5------5*5--3------5*5--3----7*7--5
A|--55---------33---------33--------55---------- X4
E|----------------------------------------------

TOCAR DESPUES DL CORO Y DURANTE EL SOLO LA PARTE 1
LUEGO LA PARTE 2
Y SE REPITEN EL VERSO Y EL CORO
TERMINAN CON EL INTRO
EL OUTRO SE LOS DEBO PERO SOLO SE ESCUCHA DE FONDO LOS ULTIMOS 7 SEGUNDOS


ESPERO LE ENCUENTREN LOS TIEMPOS, A MI ME GUSTA COMO SE OYE AUNQUE SE QUE NO ESTA BIEN PERO COMO
NADIE LO HABIA HECHO ANTES NO ME QUEDO DE OTRA MAS QUE TRATAR DE SACARLO YO.

ESPERO LES SIRVA Y SI ALGUIEN LO CORRIGE MANDE UN MAIL  don_buho19@hotmail.com.
Envía el tono de "El cantar de la luna oscura" a tu celular/móvil
Este fichero es trabajo propio de su transcriptor y representa su interpretación personal de la canción. El material contenido en esta página es
para exclusivo uso privado, por lo que se prohibe su reproducción o retransmisión, así como su uso para fines comerciales.
© LaCuerda.net · Aviso Legal · Privacidad