Tablatura para Guitarra de Mago De Oz: El cantar de la luna oscura
Conexión · Inscripción
Letras y Acordes
Pantalla Completa
Imprimir
Versión Texto
Añadir Favorito
Otras Versiones

Mostrar Diagramas
Desfile Automático
Manipular Acordes
Formato del Texto


Mago De Oz
El cantar de la luna oscura(TAB)
calidad:
mdoz0072
AUTOR: Chema, Mägo de Oz
ALBUM: Jesús De Chamberí
Enviado por Román
Intro
---------------------------------------------------------
--6-----6-5-----------3------3--5---5--------------------
------7-----7--------------3------5----------------------
----7---------------5----5-------------------------------
---------------------------------------------------------
---------------------------------------------------------

solo acústico (00:16)
-------5---------------------------5---------10-8-8-8----
--6--8---8-6-5----------5-----6--8---8-6-5---------------
-----------------7--5-7---7------------------------------
---------------------------------------------------------
---------------------------------------------------------
---------------------------------------------------------

--10--8----8-------------------------------8-10--8----8--
--------11----11-10-11-10--8-10----8-10-11---------11----
---------------------------------------------------------
---------------------------------------------------------
---------------------------------------------------------
---------------------------------------------------------

-----------8--10--12----13----12----10-------------------
--11-10-11-----------------------------------------------
---------------------------------------------------------
---------------------------------------------------------
---------------------------------------------------------
---------------------------------------------------------

Perte de violín #1 
(junto con los acrodes "dm" y "C")
X2
---------------------------------------------------------
--10-10-11-10----------------10-10-11-10-----------------
---------------10-10-9--------------------10-------------
-----------------------12---------------------12-12------
---------------------------------------------------------
---------------------------------------------------------

aqui el final puede variar
---------------------------------------------------------
--------------10-----------------------------------------
--12-12-12-12----12-10-9--------------------9------------
-------------------------12-----10-12-10-12----12--------
---------------------------------------------------------
---------------------------------------------------------

-----------------8-10------------------------------------
--10-10-10-10-10----------------10----10-----------------
----------------------12-12--12----12----12-10-8-12------
---------------------------------------------------------
---------------------------------------------------------
---------------------------------------------------------

-----------------8-10------------------------------------
--10-10-10-10-10----------------10----10---------10~~----
----------------------12-12--12----12----12-10-8---------
---------------------------------------------------------
---------------------------------------------------------
---------------------------------------------------------

y luego.
------17-15----------------------------------------------
------------18-17-15~~------15~~-------------------------
------------------------14-------------------------------
---------------------------------------------------------
---------------------------------------------------------
---------------------------------------------------------

VERSO 1

Dm
C Es el país de la luna oscura
Dm es la habitación deshabitada
C es la más bella criatura
Dm es la dama descorazonada.
Dm C Apuestos galanes la cortejan
Dm y aquellos que lo han conseguido
F C con el paso del tiempo la dejan
Dm-C-Dm-C y ella llorando escoge el olvidooo. CORO 1
Dm C De olvido vive y de olvido muere
Dm como planta en jardín olvidado
F C sabiendo que nadie la quiere
Dm sabiendo que nadie la ha amado (2 veces) *Parte #1 de violín *solo de guitarra eléctrica VERSO 2
Dm C es la inocencia perdida
Dm es la vejez negada
F C y unas lágrimas perdidas
Dm María vive desesperada. CORO 2 (igual que el anterior) *INTRO (Otra veZ) parte #2 de violín (4:37) ------------------------------------------------------------ --10-11-10---------------------10-11-10--------------------- -----------10----9--10-9----9-----------10----9----9-10-9-12 --------------12---------12----------------12---12-------12- ------------------------------------------------------------ ------------------------------------------------------------ ----8----8-10-8-------------------------------------------- ------10--------10----------------------------------------- -------------------12--10----10---------------------------- --------------------------12----12------------------------- ----------------------------------------------------------- ----------------------------------------------------------- ----------------------------------------------------------- ---------------------------10------------------------------ ----9-----9-10------10-12-----12-10--12-------------------- -------12--------12---------------------------------------- ----------------------------------------------------------- ----------------------------------------------------------- *se repite con el solo acústico por detrás *la canción se va desvaneciendo.........
Este fichero es trabajo propio de su transcriptor y representa su interpretación personal de la canción. El material contenido en esta página es
para exclusivo uso privado, por lo que se prohibe su reproducción o retransmisión, así como su uso para fines comerciales.
© LaCuerda.net · Aviso Legal · Privacidad