Tablatura para Guitarra de Lupillo Rivera: Sufriendo a solas
Conexión · Inscripción
Letras y Acordes
Pantalla Completa
Imprimir
Versión Texto
Añadir Favorito
Otras Versiones

Mostrar Diagramas
Desfile Automático
Manipular Acordes
Formato del Texto

Lupillo Rivera
Sufriendo a solas(TAB)
calidad:
lriv0022
AUTOR: Lupillo Rivera  corregir
ALBUM: desconocido
Enviado por German
Esta tablatura nacio porque un compa me estuvo enfadando mucho
para que la sacara y pues aqui estan los requintos de esta
rola medio tristona. El principio, se toca despues de la estrofa.


   Quiero………          que mis amigos………   sin que se ofendan…….
1. -----------2--------2--5--3--2--0-------2--5--3--2--0---------
2. --------3-----------3--7--5--3--2-------3--7--5--3--2---------
3. -----2--------------------------------------------------------
4. --0-----------------------------------------------------------
5. --------------------------------------------------------------
6. --------------------------------------------------------------
                 
   me dejen solo….
1. --5--5--7--7---9--9---10-----
2. --7--7--8--8--10-10---10-----
3. -----------------------------
4. -----------------------------
5. -----------------------------
6. -----------------------------    
   
   D                                               A7
  Porque me da venguenza llorar con ellos mi sufrimiento…
1. ----5--7--8---9---9--8--7--5-----
2. --7--8--9---10---10--9--8--7-----
3. ---------------------------------
4. ---------------------------------
5. ---------------------------------
6. ---------------------------------
   aunque les agradezco que se preocupen por mi dolor….
1. ----9--8--7--5--5--7--8---9-------
2. --10--9--8--7--7--8--9--10--------
3. ----------------------------------
4. ----------------------------------
5. ----------------------------------
6. ----------------------------------
                                                       D
  pienso que es preferable sufrir a solas mi cruel tormento,


  D
  A de surgir del cielo, del infinito, del mas alla,
                                                 A7
  el dia en que necesito, que me reanimen y me consuelen…
1. ----5--7--8---9---9--8--7--5-----
2. --7--8--9---10---10--9--8--7-----
3. --------------------------------- Se toca mas rapido
4. ---------------------------------
5. ---------------------------------
6. ---------------------------------

  A7
  Quiero que se me borren todas las penas que me dejo,
                                              D
  de la que yo adoraba, y sin embargo me abandono,
  D
  cartas, retratos viejos, hacen mas triste mi soledad,
  D7                                                    G
  porque me traen recuerdos de horas felices que no vendran…
1. -7-7-7-7-7-7-7-7-7-7-7-7/9-9-9-9-9-9-9-9-9-9-9-9-9/10-10-10---------
2. --------------------------------------------------------------------
3. --------------------------------------------------------------------  Esto se toca muy rapido y 
4. --------------------------------------------------------------------  acompañando LA ultima 
5. --------------------------------------------------------------------  estrofa.
6. --------------------------------------------------------------------
G                                                   D
  Cruzan por mi memoria, sus juramentos, sus falsedades,
                    A7
  que pa’ mi siempre fueron verdades,
                           D
  pero que hoy traiciones son.

Intermedio: (Notese que no lo queria poner pero es necesario para completar la rola)

“Ay, ay, ay, compa,
me dejan solito,
pa’ llorar mas agusto,
ay, hic, ay………
ay, ora’ si casi lloro, ay”.
1. ----5--7--8---9---9--8--7--5-----
2. --7--8--9---10---10--9--8--7-----
3. --------------------------------- Se toca muy rapido
4. ---------------------------------
5. ---------------------------------
6. ---------------------------------


  D
  cartas, retratos viejos, hacen mas triste mi soledad,
  D7                                                    G
  porque me traen recuerdos de horas felices que no vendran…
1. -7-7-7-7-7-7-7-7-7-7-7-7/9-9-9-9-9-9-9-9-9-9-9-9-9/10-10-10---------
2. --------------------------------------------------------------------
3. --------------------------------------------------------------------  Esto se toca muy rapido y 
4. --------------------------------------------------------------------  acompañando LA ultima 
5. --------------------------------------------------------------------  estrofa.
6. --------------------------------------------------------------------
G                                                   D
  Cruzan por mi memoria, sus juramentos, sus falsedades,
                    A7
  que pa’ mi siempre fueron verdades,
                           D
  pero que hoy traiciones son.


Bueno, ahi quedo la rola, dudas o comentarios, ya saben 
a donde. Suerte!!!!
Envía el tono de "Sufriendo a solas" a tu celular/móvil
Este fichero es trabajo propio de su transcriptor y representa su interpretación personal de la canción. El material contenido en esta página es
para exclusivo uso privado, por lo que se prohibe su reproducción o retransmisión, así como su uso para fines comerciales.
© LaCuerda.net · Aviso Legal · Privacidad