Letra y Acordes de Luis Miguel: Hasta que me olvides
Conexión · Inscripción
Letras y Acordes
Pantalla Completa
Imprimir
Versión Texto
Añadir Favorito
Otras Versiones

Mostrar Diagramas
Desfile Automático
Manipular Acordes
Formato del Texto


Luis Miguel
Hasta que me olvides
calidad:
lmig0232
AUTOR: Juan Luis Guerra
ALBUM: Aries
Enviado por Luis
  INTRO:  CAPO [1er TRASTO]

e||--18--16--15--13---11--13--11--13--15--|--15--13--11--10---8--6--------|
B||---------------------------------------|-------------------------6--4--|
G||---------------------------------------|-------------------------------|
D||---------------------------------------|-------------------------------|
A||---------------------------------------|-------------------------------|
E||---------------------------------------|-------------------------------|


e||--8--10--11--13--|--11--13----11--13--15--|
B||-----------------|------------------------|
G||--8--10--12--13--|--12--13----12--13--15--|
D||-----------------|------------------------|
A||-----------------|------------------------|
E||-----------------|------------------------|


      CAPO [1er TRASTO]

D F#m Bm A D F#m Bm A Hasta que me olvides voy a intentarlo Hasta que me olvides voy a intentarlo
G G no habra quien me seque tus labios no habra quien desnude mi boca
F#m Bm-A F#m Bm-A por dentro y por fuera como tu sonrisa
G A G A no habra quien desnude mi nombre y voy a rodar como lagrima
F#m F#m una tarde cualquiera entre la llovizna
Bm E7 Bm E7 hasta que me olvides tanto que hasta que me olvides tanto que
A G A no exista mañana ni despues, no, no. no exista mañana ni despues...
G D Hasta que me olvides
F#m Bm voy a amarte tanto tanto
A G como fuego entre tus brazos
E7 A hasta que me olvides.
G D Hasta que me olvides
Bm F#m y me rompa en mil pedazos
A continuar mi gran teatro
F# Bm E7 hasta que me olvides,
A D A-G-Gm hasta que me olvides.
D F#m Bm A Y voy a bordar tu sueño en la almohada
G llenar poco a poco el silencio
F#m Bm-A con tu abecedario
G A para cuando me calle por dentro
F#m tenerte a mi lado
Bm E7 hasta que me olvides tanto que
G A no exista mañana ni despues. Hasta que me olvides...
G F# voy a continuar copiando
Bm tu cuerpo sobre la pared
G F# y voy a colgar en tu pecho
Bm E7 A la noche y el amanecer Hasta que me olvides...
Este fichero es trabajo propio de su transcriptor y representa su interpretación personal de la canción. El material contenido en esta página es
para exclusivo uso privado, por lo que se prohibe su reproducción o retransmisión, así como su uso para fines comerciales.
© LaCuerda.net · Aviso Legal · Privacidad