Tablatura para Guitarra de Luis Fonsi: Despacito
Conexión · Inscripción
Letras y Acordes
Pantalla Completa
Imprimir
Versión Texto
Añadir Favorito
Otras Versiones

Mostrar Diagramas
Desfile Automático
Manipular Acordes
Formato del Texto


Luis Fonsi
Despacito(TAB)
calidad:
lfon1035
AUTOR: Luis Fonsi
ALBUM: Despacito (2017)
Enviado por Miguel
Espero les guste y puedan sacar el ritmo.

Es la mas completa que hay.

Intro

e---2----2----2-----2-----3-----3-----3-----3---|
B-----3----3----3-----3-----3-----3-----3-----3-|
G-4----4----4-----4-----4-----4-----4-----4-----|
D-----------------------------------------------|
A-----------------------------------------------|
E-----------------------------------------------|


e---2-----2-----2-----2----0-|
B-----3-----3-----3-----3--2-|
G-2-----2-----2-----2------2-|
D--------------------------2-|
A----------------------------|
E----------------------------|


e--2--2-----2-----|-3--3-----3------2--2-----2------0|
B--3----3-----3---|-3----3-----3----3----3-----3----2|
G--4------4-----4-|-4------4-----4--2------2-----2--2|
D--4--------------|-----------------0---------------2|
A-----------------|----------------------------------|
E-----------------|----------------------------------|


REQUINTO

e--7--10--9--7----7--|-7--9--10--12--14------14------14-|
B--7-----------10----|-7-----------------15------15-----|
G--7-----------------|-7--------------------------------|
D--------------------|----------------------------------|
A--------------------|----------------------------------|
E--------------------|----------------------------------|


e-----10------9------7-|--10--9--7--------|---10--9--7--9--10-----|
B----------------------|------------10--8-|-8------------------10-|
G--/11----/9-----/7----|------------------|-----------------------|
D----------------------|------------------|-----------------------|
A----------------------|------------------|-----------------------|
E----------------------|------------------|-----------------------|


e------10--9--10--12--12--|
B--10---------------------|
G-------------------------|
D-------------------------|
A-------------------------|
E-------------------------|


#GioRules by @GeoMarketer
Este fichero es trabajo propio de su transcriptor y representa su interpretación personal de la canción. El material contenido en esta página es
para exclusivo uso privado, por lo que se prohibe su reproducción o retransmisión, así como su uso para fines comerciales.

© LaCuerda.net · Aviso Legal · Privacidad