Tablatura para Guitarra de Luis Fonsi: Despacito
Conexión · Inscripción
Letras y Acordes
Pantalla Completa
Imprimir
Versión Texto
Añadir Favorito
Otras Versiones

Mostrar Diagramas
Desfile Automático
Manipular Acordes
Formato del Texto


Luis Fonsi
Despacito(TAB)
calidad:
lfon1034
AUTOR: Luis Fonsi
ALBUM: Despacito (2017)
Enviado por Pablo
Hola que tal amigos primer aporte espero les guste,aunque solo es el punteo
característico de la canción.
s=Slide.




|-7---10--9--7------7-|-7--9--10--12--14----14----14-|
|-7-------------10----|-7----------------15----15----|
|-7-------------------|-7----------------------------|
|---------------------|------------------------------|
|---------------------|------------------------------|
|---------------------|------------------------------|



|------10------9-----7-|-10--9--7--------|
|----------------------|-----------10--8-|
|-s11-----s9-----s7----|-----------------|
|----------------------|-----------------|
|----------------------|-----------------|
|----------------------|-----------------|


|----10--9--7--9--10-----|-----10--9--10-12-12-|
|-8-------------------10-|-10------------------|
|------------------------|---------------------|
|------------------------|---------------------|
|------------------------|---------------------|
|------------------------|---------------------|



repite esta parte:


|------10------9-----7-|-10--9--7--------|
|----------------------|-----------10--8-|
|-s11-----s9-----s7----|-----------------|
|----------------------|-----------------|
|----------------------|-----------------|
|----------------------|-----------------|




Listo amigos eso es todo espero les guste
Saludos especial para los dos negros máx.
Este fichero es trabajo propio de su transcriptor y representa su interpretación personal de la canción. El material contenido en esta página es
para exclusivo uso privado, por lo que se prohibe su reproducción o retransmisión, así como su uso para fines comerciales.
© LaCuerda.net · Aviso Legal · Privacidad