Tablatura para Bajo de Luis Alberto Spinetta: Seguir viviendo sin tu amor
Conexión · Inscripción
Letras y Acordes
Pantalla Completa
Imprimir
Versión Texto
Añadir Favorito
Otras Versiones

Mostrar Diagramas
Desfile Automático
Formato del Texto


Luis Alberto Spinetta
Seguir viviendo sin tu amor(BAJ)
calidad:
spin0243
AUTOR: Luis Alberto Spinetta
ALBUM: desconocido (Ü¿¿)
Enviado por Agustín
Intro
|------2---------------------------------------------------------
|0--x-----0---0--0-----------------------------------------------
|------------2----2--x--2--2--02--0--------------------------0---
|----------------------------------3--x--3--3--x--3--0--0-0------

Verse
|------2---------------------------------------------------------
|0--x-----0--20--------------------------------------------------
|----------------42--x--2--2--42--0--------------------------0---  x2
|----------------------------------3--x--3--3--x--3--0--0-0------

Bridge
|----------------------------------------------------------------
|----------------------------------------------------------------
|-0------------------2--2-2--2--22--2------------------------0---
|----2--22--22--22--2----------------0--0-0--0--00--03--3-3------

Verse

Verse

Bridge

Verse



/ - SLIDE UP (barrido hacia adelante)
 - SLIDE DOWN (barrido hacia atrás)
ˆ - BEND UP (estirar la cuerda hacia arriba)
ˇ - BEND DOWN (estirar la cuerda hacia abajo)
h - HAMMER ON (ligado)
x - MUTE (apagar el sonido de la cuerda)
~ - LET RING (dejar que la cuerda suene)
Este fichero es trabajo propio de su transcriptor y representa su interpretación personal de la canción. El material contenido en esta página es
para exclusivo uso privado, por lo que se prohibe su reproducción o retransmisión, así como su uso para fines comerciales.

© LaCuerda.net · Aviso Legal · Privacidad