Tablatura para Guitarra de Luis Alberto Spinetta: Seguir viviendo sin tu amor
Conexión · Inscripción
Letras y Acordes
Pantalla Completa
Imprimir
Versión Texto
Añadir Favorito
Otras Versiones

Mostrar Diagramas
Desfile Automático
Manipular Acordes
Formato del Texto


Luis Alberto Spinetta
Seguir viviendo sin tu amor(TAB)
calidad:
spin0242
AUTOR: Luis Alberto Spinetta
ALBUM: desconocido (Ü¿¿)
Enviado por leo
Intro

Bueno, en los punteos de este tema utiliza un delay,
osea, hace una sola vez cada punteo, pero con un efecto
hace que se repita (antes de hacer el que sigue...)
yo lo tengo ajustado con un retardo de 2.1 al delay,
y  queda bien a lan velocidad que hace el tema...

e----9-10------------
b--7------10-8-10----
g--------------------
d--------------------
a--------------------
e--------------------

e----9-10------------
b--7------10-8-7-----
g--------------------
d--------------------
a--------------------
e--------------------

e----9-10------7----- (el último 7 se puede hacer tmb
b--7------10-8------- arrastrando el del 10 al 12 en
g-------------------- la segunda cuerda, pero me gusta mas
d-------------------- de la 1º forma, suena mas limpio)
a--------------------
e--------------------

e--------------------
b--7-8-10-8-7-10-----
g--------------------
d--------------------
a--------------------
e--------------------

Solo:

e----9-10------------
b--7------10-8-7-----
g--------------------
d--------------------
a--------------------
e--------------------

e----9-10-10-9-10-9-10-10/14- (arrastrada)
b--7-------------------------
g----------------------------
d----------------------------
a----------------------------
e----------------------------

e----9-10------------
b--7------10-8--10/12
g--------------------
d--------------------
a--------------------
e--------------------

e--------------------
b--7-8-10-8-7-10-----
g--------------------
d--------------------
a--------------------
e--------------------

bueno nada más... aguante utopía che...
desde rio 3º.......
Un saludo a todos... jeje
Este fichero es trabajo propio de su transcriptor y representa su interpretación personal de la canción. El material contenido en esta página es
para exclusivo uso privado, por lo que se prohibe su reproducción o retransmisión, así como su uso para fines comerciales.

© LaCuerda.net · Aviso Legal · Privacidad