Tablatura para Guitarra de Liran'Roll: María
Conexión · Inscripción
Letras y Acordes
Pantalla Completa
Imprimir
Versión Texto
Añadir Favorito
Otras Versiones

Mostrar Diagramas
Desfile Automático
Manipular Acordes
Formato del Texto


Liran'Roll
María(TAB)
calidad:
lira0244
AUTOR: ¿?
ALBUM: maria
Enviado por edgar, basado en Sabás, ELIOT
aqui les va esta rolita de toño espero les guste

INTRO:

ESTA PARTE SE TOCA EN BLUES
1|-----------------------------------------|
2|-----------------------------------------|
3|-----------------------------------------|
4|----7--7--9----7--7--7--9-----7--7--7--9-|
5|----5--5--5----5--5--5--5-----5--5--5--5-|
6|-----------------------------------------|

1|-----------|-10----|-14^-14*12-------|--------|----------------------|
2|--------10-|----12-|-----------12-10-|--------|----------------------|
3|--10*11----|-------|-----------------|-12*11--|----------------------|
4|-----------|-------|-----------------|--------|----------12h14---11--|
5|-----------|-------|-----------------|--------|-12h14----------------|
6|-----------|-------|-----------------|--------|----------------------|

1|---12---10---|--10---------------------------|--12---10-------------|
2|---12---10---|--10---10--12------10h12--10---|--12---10----------.--|
3|-------------|-------------------------------|-------------12-11-11-|
4|-------------|-------------------------------|----------------------|
5|-------------|-------------------------------|----------------------|
6|-------------|-------------------------------|----------------------|

1|-12----14-15-16---17-18-19-20-----19-18-17-|
2|-12----------------------------------------|
3|-------------------------------------------|
4|-------------------------------------------|
5|-------------------------------------------|
6|-------------------------------------------|


MARIA

HAS PERDIDO MEDIA VIDA ENTRE LA SOBREDOSIS

Y EL ALCOHOL.

MARIA

HAS PERDIDO MEDIA VIDA ENTRE BARES HOTELES

Y EL ROCK AND ROLL

HAS PERDIDO EL TRABAJO   TE HAS OLBIDADO HASTA DE MI

YA NO TE PINTAS LOS LABIOS  TE HAS OLVIDADO HASTA SER MUJER

D5 -B5
MARÍA ANDAS YA MEDIA PERDIDA Y AUN NO TIENES AÑOS PARA AVORTAR
D5- B5
MARÍA DESPERDICIAS MEDIA VIDA ENTRE BARES, HOTELES Y TRASNOCHAR YA ESTAS ENCINTA Y NO SABES NI SIQUIERA DE QUIEN ES YA ESTAS ENCINTA Y HAORA DICES QUE HASTA MIO SOLO ES SOLO: 1|--------------|--10^-10~~~~|--10---------|-------------------------| 2|--10--12--10--|------------|--10---------|-------------------------| 3|--------------|------------|------10>11--|--11*12--14--12*11----14-| 4|--------------|------------|-------------|-------------------12----| 5|--------------|------------|-------------|-------------------------| 6|--------------|------------|-------------|-------------------------| 1|-----------------------------|----------------------------------------| 2|-----------------------------|-13-13-13--13-13-13--13-13-13--13-13-13-| 3|--12*11-----14---12*11-------|-14-14-14--14-14-14--14-14-14--14-14-14-| 4|--------12-------------12-14-|----------------------------------------| 5|-----------------------------|----------------------------------------| 6|-----------------------------|----------------------------------------| 1|--------------------|-----------------------10-12^-|-14--------17-15----| 2|-13--11--10----7----|-----------------10-12--------|-----17*15-------17-| 3|-14--12--10----7----|---------9-11-12--------------|--------------------| 4|--------------------|-9-11-12----------------------|--------------------| 5|--------------------|------------------------------|--------------------| 6|--------------------|------------------------------|--------------------| 1|-------------------------|--------------------------| 2|-15-------15-15-------15-|-15-------15-15-------15^-| 3|----14*16-------14*16----|----14*16-------14*16-----| 4|-------------------------|--------------------------| 5|-------------------------|--------------------------| 6|-------------------------|--------------------------| 1|------------------------| 2|19-17*19*17-17----17----| 3|---------------19----19-| 4|------------------------| 5|------------------------| 6|------------------------| 1|----17----17----17----17-|-19*17----19--17~~~|-19*17----19--17~~~| 2|-19----19----19----19----|-------19----------|-------19----------| 3|-------------------------|-------------------|-------------------| 4|-------------------------|-------------------|-------------------| 5|-------------------------|-------------------|-------------------| 6|-------------------------|-------------------|-------------------| 1|-19*17----19--17~~~|-19*17----19--17~~~|---------------------------| 2|-------19----------|-------19----------|---------------------| 3|-------------------|-------------------|-13*14-14--13*14-14--| 4|-------------------|-------------------|---------------------| 5|-------------------|-------------------|---------------------| 6|-------------------|-------------------|---------------------| 1|------------------|-13--13--13-13-13--13-13-13--13-13-13--| 2|------------------|-15--15--15-15-15--15-15-15--15-15-15--| 3|-13^-13^-13^-13^--|---------------------------------------| 4|------------------|---------------------------------------| 5|------------------|---------------------------------------| 6|------------------|---------------------------------------| 1|-15--17----15-----------|-----------| 2|--------18----18--15----|-----------| 3|---------------------17-|---15-12---| 4|------------------------|-----------| 5|------------------------|-----------| 6|------------------------|-----------| 1|------------------------------------| 2|------------------------------------| 3|-14--12*11----11-14--12*11----11----| 4|-----------12--------------12----12-| 5|------------------------------------| 6|------------------------------------| 1|--------------------------|---------------|-----| 2|-----13----13-------------|---------------|-----| 3|--14----14----14-12-------|---------------|-----| 4|--------------------14-11-|-12---------14-|-12--| 5|--------------------------|------12*14----|-----| 6|--------------------------|---------------|-----| MARIA HAS PERDIDO MEDIA VIDA ENTRE LA SOBREDOSIS Y EL ALCOHOL. MARIA HAS PERDIDO MEDIA VIDA ENTRE BARES HOTELES Y EL ROCK AND ROLL HAS PERDIDO EL TRABAJO TE HAS OLBIDADO HASTA DE MI YA NO TE PINTAS LOS LABIOS TE HAS OLVIDADO HASTA SER MUJER
D5 -B5
MARÍA ANDAS YA MEDIA PERDIDA Y AUN NO TIENES AÑOS PARA AVORTAR
D5- B5
MARÍA DESPERDICIAS MEDIA VIDA ENTRE BARES, HOTELES Y TRASNOCHAR YA ESTAS ENCINTA Y NO SABES NI SIQUIERA DE QUIEN ES YA ESTAS ENCINTA Y HAORA DICES QUE HASTA MIO SOLO ES
Este fichero es trabajo propio de su transcriptor y representa su interpretación personal de la canción. El material contenido en esta página es
para exclusivo uso privado, por lo que se prohibe su reproducción o retransmisión, así como su uso para fines comerciales.

© LaCuerda.net · Aviso Legal · Privacidad