Tablatura para Guitarra de la Ley: El duelo (unplugged)
Conexión · Inscripción
Letras y Acordes
Pantalla Completa
Imprimir
Versión Texto
Añadir Favorito
Otras Versiones

Mostrar Diagramas
Desfile Automático
Manipular Acordes
Formato del Texto

la Ley
El duelo (unplugged)(TAB)
calidad:
lley0233
AUTOR: la Ley  corregir
ALBUM: La ley Mtv Unplugged (2001)
Enviado por Adrian
Ok aquí tienen el tab. totalmente 100% correcto de la
Canción el duelo de la ley unplugged que esta buenísima.
Sigan las siguientes instrucciones al pie de la letra.
Esta rola se toca con mas de dos guitarras acústicas,
--Pero aquí solo incluyo las dos necesarias, una que solo
Lleva los acordes y la otra que lleva el punteo necesario.
En donde dice “ver fig” tienen que localizarla y 
Ejecutarlo donde se señala.Escuchen el disco y síganla.


   Aquí va el intro :

         Em                   C            Em
E--0----------------------------------------------------
B--0----------------------------------------------------
G--0---0-----------------------------0--2---------------
D--2-----4-2--------------------0--2-------2/4----------
A--3---------0/2-0--2--3--2---3-------------------------
E--3----------------------------------------------------


E--0---0----0----0----0----0----0--------
B---0---0---1----0----1----0----1--------
G----0------0----0----0----0----0--------
D-----------2----2----2----2----2-0--2-4-
A-----------3----2----3----2----3--------
E-----------3----0----3----0----3--------


E--------------------------------------------
B----------3/5--3------3-3/5--3--------------
G--0-2--4---------4--5-----------4--5--------
D--------------------------------------------
A--------------------------------------------
E--------------------------------------------


  Em   Con una lagrima      de fe sobre tu piel
E---------------------------------------------------
B-------3----3----3----------3----3----3------------
G------0-0----0----0--------0-0----0----0-----------
D-----2---2----2----2------2---2----2----2----------
A---------------------------------------------------
E---0--------------------0--------------------------


  C    olvide LA grieta     que dejo tu amor
E---------------------------------2---3---2-----0---
B-------3---3---3----------3---3--3---5---3--3------
G------0-0---0---0--------0-0----------------4------
D-----2---2---2---2------2---2----------------------
A---3------------------3----------------------------
E---------------------------------------------------
  Em  pero ese instinto    taurino de tu ser
E---------------------------------------------------
B-------3----3----3-----------3----3----3-----------
G------0-0----0----0---------0-0-------0-0---0------
D-----2---2----2----2-------2---2-----4----4--------
A---------------------------------------------------
E---0---------------------0-------------------------


 CM  me obligo azotarte    huuuuu     tiernamente
E-------0----0----0--------0----------0-------------
B------1-1----1----1-------1----------1-------------
G-----0---0----0----0------0----------0-------------
D--------------------------2----------2-------------
A---3----------------------3----------3-------------
E--------------------------3----------3-------------

 

 G     D           Am      C
Sin dolor no te haces feliz    (ver fig.1.4)
 G     D           Am       C
Sin dolor no te haces feliz    (ver fig.1.6)
         G Bm Am C G Bm Am  C
Sin amooooooooor               (ver fig.1.5)
           Em
No sufres mas                  (ver fig.2.0)

      
    Figura 1.4
E--------------------------------------------------------
B-------------1-0-3/5-3-1-0-1-3/5-3-1-0-1-0--------------
G-----------0---------------------------------2----------
D-------0/2--------------------------------------2/3--2--
A--2-3---------------------------------------------------
E--------------------------------------------------------

   Figura 1.6
E--------------------------------------
B---3/5--3--1--0--1--0-----------------
G------------------------2--0----------
D------------------------------0/2--0--
A--------------------------------------
E--------------------------------------

   Figura 1.5
E--------------------------------------
B--------------1-0---------------------
G------------0-------------------------
D-------0/2----------0-4-2-0-2-0-------
A---2-3---------------------------3-2--
E--------------------------------------

   Mitad de la canción    figura 2.0
E--------------------[12]------------------------------
B-----------------------[12]---------------------------
G------------------------------------------------------
D--------12--9----------------------12--9--------12--9-
A---9-10---------9-10---------9-10---------9-10--------
E------------------------------------------------------


   El arpegio y acordes en donde canta Beto Cuevas, se
Repite en donde canta Ely  Guerra.


Toda esa noche, provocaste ver en mi     (ver fig.1.1)
Lo que a nadie muestro, en la intimidad  (ver fig.1.2)
Pero esa forma de mirada que había en ti (ver fig.1.2.1)
Me obligo a matarte   huuuuuuu  lentamente  [010233]

   
   Figura 1.1            figura 1.2 
E--15--14--12---      E-----------------------------------
B---------------      B-----------------------------------
G---------------      G------------0----------------------
D---------------      D---0--2---4------2/4---2-----------
A---------------      A---------------------------0/2-----
E---------------      E-----------------------------------

    Figura  1.2.1
E-----------------------------------------------------
B---------------------------3/4---3-------------------
G---0---2---2---2/4--2--0--------------4--5--4--2--0--
D-----------------------------------------------------
A-----------------------------------------------------
E-----------------------------------------------------


Sin dolor no te haces feliz       (ver fig.1.5)
Sin dolor no te haces feliz       
Sin amoooooooor                   (ver fig.1.5)
Tiernamente                       (010233)

Sin dolor no te haces feliz       (ver fig.1.3)
Sin dolor no te haces feliz       
Sin amoooooooor                   (ver fig.1.3.1)


   Figura  1.3
E---------------------------------------
B-------0-1-0---------------------------
G--0-2----------2-0---------------------
D---------------------0-2-2---0---------
A---------------------------------------
E---------------------------------------
   Figura 1.3.1
E--------------------------------
B---3/5-3---1---0------1---0-----
G-------------------2------------
D--------------------------------
A--------------------------------
E--------------------------------


Aquí empieza lo rápido, por lo que el ritmo en los
Acordes también.

E------------------------------------------0---0---0---0---
B---55555555---78888---101212121081088-----1---1---1---1---
G------------------------------------------0---0---0---0---
D------------------------------------------2---2---2---2---
A------------------------------------------3---3---3---3---
E------------------------------------------3---3---3---3---


Sin dolor no te haces feliz         (ver fig.1.3)
Sin dolor no te haces feliz         (ver fig.1.3)
Sin amooooooooor                    (ver fig.1.3)
Tiernamente 


Sin dolor no te haces feliz         (ver fig.1.3)
Sin dolor no te haces feliz         (ver fig.1.3)
Sin amoooooooooor                   (ver fig.1.3)
No sufres mas


E----------5----3----2--------------
B------3----3----3----3-------------
G---0---0----0----0----0----0-------
D---2----4--------------------------
A---2-------------------------------
E---0-------------------------------


Ok es bastante pero échenle ganas y veran que si van
A poder. Para preguntas, sugerencias, peticiones o invitaciones 
escríbanme a adrian_15@atame.org y arriba
LA ley.

p.d.  saludos para mi amiga Araceli Basurto Pérez   bye
Envía el tono de "El duelo (unplugged)" a tu celular/móvil
Este fichero es trabajo propio de su transcriptor y representa su interpretación personal de la canción. El material contenido en esta página es
para exclusivo uso privado, por lo que se prohibe su reproducción o retransmisión, así como su uso para fines comerciales.
© LaCuerda.net · Aviso Legal · Privacidad