Letra y Acordes de Kjarkas: Viva Cochabamba
Conexión · Inscripción
Letras y Acordes
Pantalla Completa
Imprimir
Versión Texto
Añadir Favorito
Otras Versiones

Mostrar Diagramas
Desfile Automático
Manipular Acordes
Formato del Texto


Kjarkas
Viva Cochabamba
calidad:
kjar0511
AUTOR: Kjarkas  corregir
ALBUM: desconocido
Enviado por Jorge
INTRO:






E|0-2-3-----3---
B|-----0-2-2-2--
G|-------------2
D|--------------
A|--------------
E|--------------


E|0-2-3-----3---
B|-----0-2-2-2--
G|-------------2
D|--------------
A|--------------
E|--------------



Hay compañeros valle manta

Takirikusun chisgustu manta

Hay compañeros valle manta

Takirukusun chisgustu manta.



Nojay kupis Jankunapis

Viva Cochabamba , maya rimpi.


Nojay kupis Jankunapis

Viva Cochabamba , maya rimpi.



E|0-2-3-----3---
B|-----0-2-2-2--
G|-------------2
D|--------------
A|--------------
E|--------------

Viva Cochabamba, maya rimpi.


E|0-2-3-----3---
B|-----0-2-2-2--
G|-------------2
D|--------------
A|--------------
E|--------------

Viva Cochabamba, maya rimpi.


(((SE REPITE TODA LA CANCION UN POCO MAS RAPIDO)))

Despues que repites la cancion sigue esto:

   (RAPIDO)






E|0-2-3-----3---
B|-----0-2-2-2--
G|-------------2
D|--------------
A|--------------
E|--------------


E|0-2-3-----3---
B|-----0-2-2-2--
G|-------------2
D|--------------
A|--------------
E|--------------



    (MAS RAPIDO)





E|0-2-3-----3---
B|-----0-2-2-2--
G|-------------2
D|--------------
A|--------------
E|--------------


E|0-2-3-----3---
B|-----0-2-2-2--
G|-------------2
D|--------------
A|--------------
E|--------------



FIN..
Este fichero es trabajo propio de su transcriptor y representa su interpretación personal de la canción. El material contenido en esta página es
para exclusivo uso privado, por lo que se prohibe su reproducción o retransmisión, así como su uso para fines comerciales.

© LaCuerda.net · Aviso Legal · Privacidad