Tablatura para Guitarra de Kjarkas: Munasq´echay
Conexión · Inscripción
Letras y Acordes
Pantalla Completa
Imprimir
Versión Texto
Añadir Favorito
Otras Versiones

Mostrar Diagramas
Desfile Automático
Manipular Acordes
Formato del Texto

Kjarkas
Munasq´echay(TAB)
calidad:
kjar1322
AUTOR: Kjarkas  corregir
ALBUM: 35 Años (2006)
Enviado por daniel
PAIS: Bolivia(Cochabamba)

Esta es una versión muy simple para principiantes
(como yo) a ver si les suena bien.....

1er Punteo (00:01)
MI -3-----3-----2-----2-------0-0-0-0-3-0-----------
SI -----0-----0-----0-----0---1-1-1-1------3---3--3-
SOL---0-----0-----2-----2-----0-0-0-0---------0--0--
RE -2-----------0----------------------------0------
LA -------------------------3--------------2--------
MI -------------------------------------------------

-----------0--------------2-2-2-2-0---0------0-------12-
---1---1-1---1-0--1/0---0-----------3------0------12----
---0---0-0-------------------------------0-----12-------
--------------------------------------------------------
--------------------------------------------------------
-0---0--------------------------------------------------

2do Punteo (00:15)
MI -3-----3/7--2-----2/7---0-0-0-0-3-0-----------
SI -----0----------0-------1-1-1-1------3---3--3-
SOL---0----------2---------0-0-0-0---------0--0--
RE -2----------0--------------------------0------
LA ----------------------3--------------2--------
MI ----------------------------------------------

-----------0--------------2-2-2-2-0---0------0----0-
---1---1-1---1-0--1/0---0-----------3------0----3---
---0---0-0-------------------------------0----------
----------------------------------------------------
----------------------------------------------------
-0---0-----------------------------------------------

3er Introducción (00:35)
  MIREDOREMI
======   ======    ======  ======    ======
||||||   ||||||    ||||o|  ||||||    ||||||
|oo|||   |||o|o    ||o|||  |||o|o    |oo|||
||||||   ||||o|    |o||||  ||||o|    ||||||
||||||   ||||||    ||||||  ||||||    ||||||
Rasqueo
▲ | x ▲ | x ▲ | | ▲ |
| | x | | x | | | | |
| | x | | x | | | | |
| ▼ x | ▼ x | ▼ ▼ | ▼

4to Verso (01:08)
MI                         RE
--------------------------------2---2---
-----0----0--------------------3--3-----
--------0---------------------2-------2-
--2--------2---------------0------------
----------------------------------------
0---------------------------------------
Munasq’echay, tuta punchay maskakunay

        DO                 MI
------------------------------12-12-10-10----------
-------------1---1------------------------12-12-10-
---------------------------------------------------
------------2--2-----------2-----------------------
--------3--3-------3-------2-----------------------
--------------------------------------------------- ..(x2)
tarispa suscucunay, warmisitay.....

5to Coro (01:33)
          SI            LA
Qanraykullayna karin viday
         DO          MI
sonqo kullay sipasitay
          SI            LA
Qanraykullayna karin viday
         DO          MI
sonqo kullay sipasitay

Rasqueo
▲ | | ▲ | x ▲ | | ▲ |
| | | | | x | | | | |
| | | | | x | | | | |
| ▼ ▼ | ▼ x | ▼ ▼ | ▼¬

6to Intermedio (02:00)
  MIRELA
======   ======  ======
||||||   ||||||  ||||||
|oo|||   |||o|o  ||ooo|
||||||   ||||o|  ||||||
||||||   ||||||  |||||| (x2)
  DOSOLLA
======   ======    ======
||||o|   ||||||    ||||||
||o|||   |o||||    ||ooo|
|o||||   o||||o    ||||||
||||||   ||||||    ||||||
  MIREMI
======    ======    ======
||||||    ||||||    ||||||
|oo|||    |||o|o    |oo|||
||||||    ||||o|    ||||||
||||||    ||||||    ||||||

7mo Verso (02:35)
MI                         RE
--------------------------------2-----2---
-----0----0--------------------3----3-----
--------0---------------------2---2-----2-
---2--------2--------------0--------------
------------------------------------------
0-----------------------------------------
Mi buen amor, mi herida de amor mi verdad

            DO                        MI
--------------------------------------12-12-10-10-----------
--------------1-----1------------------------------12-12-10-
------------------------------------------------------------
-------------2----2----------------2------------------------
---------3--3---3-----3------------2------------------------
------------------------------------------------------------..(x2)
mi credo razón de vivir, mi lluvia de abril.....

8vo Coro (03:00)
          SI           LA
Gracias a ti mi triste vivir
          DO          MI
pudo cambiar en un jardín

          SI           LA
Gracias a ti mi triste vivir
          DO          MI
pudo cambiar en un jardín.....

9no Salida (03:27)
  MIREDOREMI
======   ======    ======  ======   ======
||||||   ||||||    ||||o|  ||||||   ||||||
|oo|||   |||o|o    ||o|||  |||o|o   |oo|||
||||||   ||||o|    |o||||  ||||o|   ||||||
||||||   ||||||    ||||||  ||||||   ||||||

Fin (04:12)
Esta canción la dedico a mi amorcito NadirRCC
Viva los Kjarkas Oruro - Bolivia
Envía el tono de "Munasq´echay" a tu celular/móvil
Este fichero es trabajo propio de su transcriptor y representa su interpretación personal de la canción. El material contenido en esta página es
para exclusivo uso privado, por lo que se prohibe su reproducción o retransmisión, así como su uso para fines comerciales.
© LaCuerda.net · Aviso Legal · Privacidad