Letra y Acordes de Kapanga: Ramón
Conexión · Inscripción
Letras y Acordes
Pantalla Completa
Imprimir
Versión Texto
Añadir Favorito
Otras Versiones

Mostrar Diagramas
Desfile Automático
Manipular Acordes
Formato del Texto

Kapanga
Ramón
calidad:
kapa0123
AUTOR: Kapanga  corregir
ALBUM: A 15 cm de la realidad
Enviado por victor
Muy buena Cancion de Kapanga...

intro


SImSim(x4)    LA#m         SOL     FA#      SIm
e|---7-----|---6--------|---3---|---2----|---7-----|
B|---7-----|---6--------|---3---|---2----|---7-----|
G|---7-----|---6--------|---4---|---3----|---7-----|
D|---9-----|---8--------|---5---|---4----|---9-----|
A|---9-----|---8--------|---5---|---4----|---9-----|
E|---7-----|---6--------|---3---|---2----|---9-----|

  |                  |   |                         |
   ------------------     -------------------------
         (x3)                  (x1) Final

despLAs:FA#mSImSSOL-la(x3)-  Sim-Sol-Fa#(final)

Cacareo

SIm                  MIm
Te estoy buscando y no te encuentro,
 SOL                  RE
estoy cansado de esperar,
 SIm                  MIm
estas viniendo y yo lo siento,
 SOL                FA#
vas a ponerme el antifaz
 SIm                  MIm
estas rondando por el pueblo,
 SOL                  RE
voy a salirte a buscar
 SIm                  MIm
estoy saliendo a tu encuentro,
 SOL                  FA#
la risa empieza a flotar,
 LA                       SIm
Muchachos no pierdan la esperanza
 LA               SIm
Ramón esta por llegar,
   LA                        SIm
Muchachos por favor no desesperen,
   LA                              RE
Ramón ya está en la puerta de mi hogar
,

A---5--4--3-----------
E--------------------

SIm
HAY VIENE RAMON,
    SOl-LA         SIm
LA ALEGRIA DE MI ALMA
SIm
HAY VIENE RAMON,
     SOl-LA           SIm
CON LA RISA EN SU MIRADA
SIm
HAY VIENE RAMON
     SOl-LA           SIm
DESPACITO CASI LENTO
SIm          SOL
HAY VIENE RAMON,
                SIm-SOL-RE-LA (parte de Soda Estereo)
DE MUSICO LIGERO



SImSim(x4)    LA#m         SOL     FA#      SIm
e|---7-----|---6--------|---3---|---2----|---7-----|
B|---7-----|---6--------|---3---|---2----|---7-----|
G|---7-----|---6--------|---4---|---3----|---7-----|
D|---9-----|---8--------|---5---|---4----|---9-----|
A|---9-----|---8--------|---5---|---4----|---9-----|
E|---7-----|---6--------|---3---|---2----|---9-----|

  |                  |   |                         |
   ------------------     -------------------------
         (x1)                  (x1) Final


Solo De Bajo


 LA                       SIm
Muchachos no pierdan la esperanza
 LA               SIm
Ramón esta por llegar,
   LA                        SIm
Muchachos por favor no desesperen,
   LA                              RE
Ramón ya está en la puerta de mi hogar
,

A---5--4--3-----------
E--------------------


SIm
HAY VIENE RAMON,
    SOl-LA         SIm
LA ALEGRIA DE MI ALMA
SIm
HAY VIENE RAMON,
     SOl-LA           SIm
CON LA RISA EN SU MIRADA
SIm
HAY VIENE RAMON
     SOl-LA           SIm
DESPACITO CASI LENTO
SIm          SOL
HAY VIENE RAMON,
                SIm-SOL-RE-LA (parte de Soda Estereo)
DE MUSICO LIGERO

parte lenta

acordeon con el punteo de the trooper de iron maiden

SIm
HAY VIENE RAMON,
    SOl-LA         SIm
LA ALEGRIA DE MI ALMA
SIm
HAY VIENE RAMON,
     SOl-LA           SIm
CON LA RISA EN SU MIRADA
SIm
HAY VIENE RAMON
     SOl-LA           SIm
DESPACITO CASI LENTO
SIm          SOL
HAY VIENE RAMON,
                SIm-SOL-RE-LA (parte de Soda Estereo)
DE MUSICO LIGERO


espero que les guste,escuchen el tema para sacar bien el ritmo.
suerte y aguante el punk rock :P
Envía el tono de "Ramón" a tu celular/móvil
Este fichero es trabajo propio de su transcriptor y representa su interpretación personal de la canción. El material contenido en esta página es
para exclusivo uso privado, por lo que se prohibe su reproducción o retransmisión, así como su uso para fines comerciales.
© LaCuerda.net · Aviso Legal · Privacidad