Letra y Acordes de Juanes: A Dios le pido
Conexión · Inscripción
Letras y Acordes
Pantalla Completa
Imprimir
Versión Texto
Añadir Favorito
Otras Versiones

Mostrar Diagramas
Desfile Automático
Manipular Acordes
Formato del Texto


Juanes
A Dios le pido
calidad:
juan0093
AUTOR: Letra Juanes
ALBUM: Un Día Normal (2002)
Enviado por Nicolás, basado en Funksisco
Intro Acordes: Am - E7

Intro:

E|-5--5-5-5-8-8-8-|------------------------------|
B|-5--5-5-5-5-5-8-|------------------------------|
G|-5--5-5-5-5-5-5-|---4-7-7----4-7-7----4-7------|
D|----------------|-6--------6--------6-----6--7-|
A|----------------|------------------------------|
e|----------------|------------------------------|(X2)

E|----------------------------|------------------------------|
B|-----5---5-------5---5------|------------------------------|
G|---5---5---5---5---5----7-4-|---4-7-7----4-7-7----4-7------|
D|-7-----------7--------------|-6--------6--------6-----6--7-|
A|----------------------------|------------------------------|
e|----------------------------|------------------------------|

E|-----------5-----5---5-4-0-|-----7-10-8-7----8-7---------|
B|-----5---5---5-----5-------|---9----------10-----10-9-10-|
G|---5---5-------5-----------|-9---------------------------|
D|-7-------------------------|-----------------------------|
A|---------------------------|-----------------------------|
e|---------------------------|-----------------------------|


Am Que mis ojos se despierten
E7 con la luz de tu mirada
Am yo a Dios le pido
Dm que mi madre no se muera
E7 y que mi padre me recuerde
Am a Dios le pido
Am Dm Que te quedes a mi lado
E7 y que más nunca te me vayas mi vida
Am a Dios le pido
Dm que mi alma no descanse
E7 cuando de amarte se trate mi cielo
Am a Dios le pido
Am Por los días que me quedan
E7 y las noches que aun no llegan yo...
Am a Dios le pido
Dm por los hijos de mis hijos
E7 y los hijos de tus hijos
Am a Dios le pido
Dm Que mi pueblo no derrame tanta sangre
E7 y se levante mi gente
Am a Dios le pido
Dm que mi alma no descanse
E7 cuando de amarte se trate mi cielo
Am a Dios le pido
Am E Un segundo más de vida para darte
G D y mi corazón entero entregarte
Am E un segundo mas de vida para darte
G D y a tu lado para siempre yo quedarme
Am E un segundo mas de vida yo
C A Dios le pido CORO:
G Que si me muero sea de amor
Am y si me enamoro sea de vos
G y que de tu voz sea este corazón
C todos los días a Dios le pido
G que si me muero sea de amor
E Am y si me enamoro sea de vos
D G y que de tu voz sea este corazón
E Am todos los días a Dios le pido. INTRO Que mis ojos se despierten con la luz de tu mirada yo a Dios le pido que mi madre no se muera y que mi padre me recuerde a Dios le pido Que te quedes a mi lado y que más nunca te me vayas mi vida a Dios le pido que mi alma no descanse cuando de amarte se trate mi cielo a Dios le pido Un segundo más de vida para darte y mi corazón entero entregarte un segundo mas de vida para darte y a tu lado para siempre yo quedarme un segundo mas de vida yo a Dios le pido CORO
Este fichero es trabajo propio de su transcriptor y representa su interpretación personal de la canción. El material contenido en esta página es
para exclusivo uso privado, por lo que se prohibe su reproducción o retransmisión, así como su uso para fines comerciales.
© LaCuerda.net · Aviso Legal · Privacidad