Tablatura para Guitarra de Jovenes Pordioseros: Descontrolado
Conexión · Inscripción
Letras y Acordes
Pantalla Completa
Imprimir
Versión Texto
Añadir Favorito
Otras Versiones

Mostrar Diagramas
Desfile Automático
Manipular Acordes
Formato del Texto

Jovenes Pordioseros
Descontrolado(TAB)
calidad:
jpor0113
AUTOR: Cristian Iglesias
ALBUM: Vicio
Enviado por Pablito
tenian un par de errores las otras

             LA + Riff1              LAsus4
No me arrepiento                     Riff1           Riff2
                      MI          e|-3-3-3-(2)-|---4--4--5--7--5---|
De haber venido hasta aca         B|-2-2-2-(2)-|--5----5--5--5--5--|
                      FA#m RE     G|-2-2-2-(2)-|-4------4--4--4--4-|
De haber viajado una hora         D|-0-0-0-(0)-|-------------------|
                 Mi + Riff2       A|-----------|-------------------|
Para volverte a ver               E|-----------|-------------------|
            LA
Y si estoy solo
                  MI
Voy escuchando tu voz
                    FA#m RE
Puedo dejar muchas cosas
                MI
Para volverte a ver
                                                     Riff3
                                                  e|-------------|
RE         MI                                     B|-------------|
Y cuando llega la noche                           G|-------------|
LA           FA#m (riff3)                         D|--4-2----+---|
Me late el corazòn                                A|------4-2-(5)|
RE                     LA  MI                     E|-2-----------|
Y cuando llega esa noche


       LA                     MI
Y te quiero no me preguntes porque
                   FA#m RE
Puedo dejar muchas cosas
                 MI
Para volverte a ver
       LA                        MI
Descontrolado yo no te quiero perder
                     FA#m RE
No me conformo con verte
                   MI
Solo una vez al mes


RE         MI
Y cuando llega la noche
LFA#m         fa#m(riff3)
Me late el corazòn
RE                     LA  MI
Y cuando llega esa noche

Rock and roll!


Solo de guitarrra: [La-Mi-Fa#m-Re-Mi] x2

                 LA                      MI                         FA#m     RE             MI
e|------------------|------------|---------------------|-----------------|-------|------------|------------|
B|-------------2----|------------|---------------------|-----------------|-------|------------|------------|
G|---------2-4---2~-|-4p2-4p2-2~-|-2-4/11-9-7-6-7-4-2~-|-6-4---------(6)-|-4-(2)-|------------|------------|
D|-----2-4----------|------------|---------------------|------7-6-0--(4)-|-2-(0)-|-7h6--------|-----7p6----|
A|-4-5--------------|------------|---------------------|-----------------|-------|------7-5-7-|-777-----7~-|
E|------------------|------------|---------------------|-----------------|-------|------------|------------|
                                                                                              PM...
                   LA                          MI                                   FA#m                    RE
e|--------------------|----------------------------------------|--------------------------|------------------------|
B|-------------2------|------2-3/5-3-2h3p2-2p0-----------------|----10---10---10--12b-12b-|-12p10----12brbr-10-10v-|
G|---------2-4---2-2~-|--2-4-------------------4p2--2/1/2------|-/9----9----9-------------|-------11---------------|
D|-----2-4------------|------------------------------------4-2-|--------------------------|------------------------|
A|-4-5----------------|----------------------------------------|--------------------------|------------------------|
E|--------------------|----------------------------------------|--------------------------|------------------------|

   MI                                RE
e|--------------------------------------|
B|-10-10/9-9-9-9/7-7-7-5/7-7/9-9/5--5~~-|
G|--------------------------------------|
D|--------------------------------------|
A|--------------------------------------|
E|--------------------------------------|

RE         MI
Y cuando llega la noche
LFA#m         fa#m(riff3)
Me late el corazòn
RE                     LA  MI
Y cuando llega esa noche


            LA
No me arrepiento
                      MI
De haber venido hasta aca
                      FA#m RE
De haber viajado una hora
                MI
Para volverte a ver
           LA
Yo no te miento
                   MI
Siempre dije la verdad
                     FA#m RE
Pueden pasarme mil cosas
               MI
Pero yo sigo igual

RE         MI
Y cuando llega la noche
LA           FA#m
Me late el corazòn
RE                     LA  MI
Y cuando llega esa noche
Envía el tono de "Descontrolado" a tu celular/móvil
Este fichero es trabajo propio de su transcriptor y representa su interpretación personal de la canción. El material contenido en esta página es
para exclusivo uso privado, por lo que se prohibe su reproducción o retransmisión, así como su uso para fines comerciales.
© LaCuerda.net · Aviso Legal · Privacidad