Tablatura para Guitarra de Jorge Rojas: Uno Mismo
Conexión · Inscripción
Letras y Acordes
Pantalla Completa
Imprimir
Versión Texto
Añadir Favorito
Otras Versiones

Mostrar Diagramas
Desfile Automático
Manipular Acordes
Formato del Texto

Jorge Rojas
Uno Mismo(TAB)
calidad:
jroj0661
AUTOR: Jorge Rojas
ALBUM: Uno Mismo (2011)
Enviado por martin, basado en cardozo
HOLA A TODOS, AQUI LES ENVIO
LA CANCION CON LOS SOLOS ESPERO LES
GUSTE...

INTRO: Arpegio de Lam


                 LAm
Cuantas cosas diferentes
                   SOL
Puso dios en este mundo
                    FA
Y también nos hizo libre
                      MI7
De elegir y hallar el rumbo

                     LAm
No perder  el  equilibrio
                      SOL
Por ser lo que uno quiere
                FA
Y caer en un abismo
                      MI7
Por no hacer lo que se debe

                 LAm
Y la prueba más difícil
                  SOL
Es enfrentar el camino
                 FA
Y sin duda la batalla
                   MI7
Que se da con uno mismo

     SOL#°   MI7 LAm
Y aparece el egoísmo
                  SOL
Con su plan de dar pelea
              FA
Y se suma la mentira
                 MI7
Para desatar la guerra

                    DO
Y al final es uno mismo
                   SOL/SI
El que ignora la conciencia
                     FA
El que avanza a contramano
                     MI7
Sin medir las consecuencia

SOL7                  DO
Porque soy mi propio esclavo
                    SOL/SI
Cuando digo lo que pienso
                    FA
Porque a veces hago daño
                    MI7
Cuando callo lo que siento
     SOL#° MI7      LAm
Y se pone cuesta arriba
                     SOL
Y es tan fuerte la tormenta
                    FA
Que uno va quedando solo
                       MI7
Como el faro entre la niebla

SOLO CON:
LAm SOL FA MI
DO SOL/SI - FA - MI - SOL#° MI7

e)----------------------
b)-5-6-5-6-5-6-5-5-3-1--
g)-5-7-5-7-5-7-5-5-4-2--

e)-----------------------
b)-5-6-5-6-6/8-5-3-3-1-0-
g)-5-7-5-7---9-5-4-4-2-0-


e)---------------------
b)-3-5-3-5-3-0-1-1-0---
g)-4-5-4-5-4-0-2-2-0-2-
D)-------------------3-


e)-----------------------
b)-1-1-1p3-1-0---0-0-----
g)-2-2-2---2-1-2-1-1-2-1-
D)-------------3-----3-2-


e)-------------5-7-8--10-12-13/15-
b)-------5-6-8-6-8-10-12-13-15----
g)-4-5-7-5-7-9--------------------
D)-5-7-9--------------------------

e)------8-12-13-12-10-8--
b)----8-8-13-15-13-12-10-
g)-9--9------------------
D)-10--------------------

e)-10--10-10-10-10p12-10-8---7-7p8-5-
b)-12--12-12-12-12----12-10--8-8---6-
g)-----------------------------------
D)-----------------------------------

e)-8--8--8p10-8--7-5-7-
b)-10-10-10---10-9-6---
g)---------------------


e)-5-4-5-7-8-----
b)-6-5-7-9-------
g)---------9-----


SOLO DEL FINAL

e)-5-7-8-5---5-7---7-
b)---------7-----7---

e)-8-10-8-12b-10-12-
b)------------------
g)------------------

e)-10----------10-12----
b)----13-12-13-------13-
g)----------------------

FINAL


e)---7-10-12-14-17-17-
b)-9------------------
g)--------------------
Envía el tono de "Uno Mismo" a tu celular/móvil
Este fichero es trabajo propio de su transcriptor y representa su interpretación personal de la canción. El material contenido en esta página es
para exclusivo uso privado, por lo que se prohibe su reproducción o retransmisión, así como su uso para fines comerciales.
© LaCuerda.net · Aviso Legal · Privacidad