Tablatura para Guitarra de Joaquín Sabina: Contigo
Conexión · Inscripción
Letras y Acordes
Pantalla Completa
Imprimir
Versión Texto
Añadir Favorito
Otras Versiones

Mostrar Diagramas
Desfile Automático
Manipular Acordes
Formato del Texto


Joaquín Sabina
Contigo(TAB)
calidad:
sabi0204
AUTOR: da Diego, Joaquín Sabina, Pancho Varona
ALBUM: Yo, Mi, Me Contigo (1996)
Enviado por Josué
Esta es la primera canción que saco y no fue fácil me tomo 3 días sin
Dormir D=, El intro es a mi versión y los arpegios necesitan oír la
Canción para guiarse, es lo más similar que pude hacerla,
Pero también le puse arreglos, espero les guste y no olviden votar
xD saludos desde México

Josué Palacio

Contigo Joaquín Sabina

Capo 2ndo traste
Intro
1|------2---5-3-2-|-2------3-------|----2---2-0-2---|---2-0-7-5-2--|
2|--3-5---3-------|-0----3-------3-|3-5---5----5--3-|-3---------0--|
3|----------------|-0----0-------0-|--------------0-|-----------0--|
4|----------------|-0--0-------0---|----------------|-----------0--|
5|----------------|----------------|----------------|--------------|
6|----------------|---3------------|----------------|--------------|


1|----2-0-------14|-----2----------3-----------2----|--------3-----|
2|5/3----3-5--12--|---0---3------3---3------2h3---3-|-----3------3-|
3|----------11----|---2----2-----0---2----2-------2-|-----0------0-|
4|----------------|-0----------0----0------------2--|---0------0---|
5|----------------|---------------------------------|--------------|
6|----------------|0---------3-----------2----------|-3------------|
                  Yo no quiero un amor civilizado con recibos
y escena del sofá
1|----------------|----------------|-----------------|--------3----|e
2|----3------3----|----2-------2---|----1---------1--|-----3------3|b
3|----4------4----|----2-------2---|----2---------2--|-----0------0|g
4|--4--4---4---4--|--4---4---4---4-|--2---2-----2---2|--0-------0--|d
5|-------2--------|----------------|----------0------|-------------|a
6|-2--------------|-2-------2------|-0---------------|-0-----------|e
Yo no quiero que viajes al pasado y vuelvas del mercado con ganas de
llorar
1|----------------|---------2-----|------3-------------0------3----|
2|-----3-------3--|-----2h3-----3-|----3-----3--------3-----3----3-|
3|-----2-------2--|---2---------2-|----0-----0-----0h2------0----0-|
4|---4---4---4---4|-----------2---|--0-----0-----0--------0----0---|
5|-2-------2------|---------------|--------------------------------|
6|----------------|-2-------------|3------------3-------3----------|
Yo no quiero vecinas con pucheros yo no quiero sembrar ni compartir
, yo no quiero

1|-------0--------|------0------0-|----------0-------|-------------|
2|-----3-------3--|----2------2---|----------2-------|-------------|
3|-----0-------0--|----0------0---|----------0-------|-------------|
4|---0-------0----|--2------2-----|----------2-------|-------------|
5|---------3------|--------0------|----------0-------|-------------|
6|-3--------------|-0-------------|----------0-------|-------------|
Catorce  de febrero  ni cumpleaños feliz





1|-------0-------|-------3------|---------2-----|---------3-------|
2|-----3------3--|-----3-----3--|-----2h3-----3-|------3-------3--|
3|-----0------0--|-----2-----0--|---2---------2-|------0-------0--|
4|---0-----0-----|---0-----0----|----------2----|----0------0-----|
5|---------------|--------------|---------------|-----------------|
6|-3-------------|--3-----------|-2-------------|--3--------------|
Yo no quiero Cargar con tus maletas yo no quiero,que elijas mi champú

1|---------------|---------------|----------------|--------3------|
2|----3------3---|----2-------2--|----1-------1---|-----3------3--|
3|----4------4---|----2-------2--|----2-------2---|-----0------0--|
4|--4--4---4---4-|--4---4---4---4|--2---2---2---2-|--0-------0----|
5|-------2-------|---------------|--------0-------|---------------|
6|-2-------------|-2-------2-----|-0--------------|-0-------------|
Yo no quiero cortarme la coleta, mudarme del planeta, brindar a
tu salud
1|----------------|--------2-----|-------3----------------0-------|
2|-----3-------3--|----2h3-----3-|-----3------3---------3---------|
3|-----2-------2--|--2---------2-|-----0------0------0h2----------|
4|---4---4---4---4|----------2---|---0------0------0--------------|
5|-2-------2------|--------------|--------------------------------|
6|----------------|2-------------|-3-------------3----------------|
Yo no quiero domingos por la tarde, yo no quiero columpio en el jardín

1|------0--------|-------0-------|-------0-------0|------0-------0|
2|----3-------3--|-----3-------3-|--- -2------2---|----2-------2--|
3|----0-------0--|-----0-------0-|--- -0----------|----0-------0--|
4|--0-------0----|---0-------0---|--2-------2-----|--2-------2----|
5|--------3------|---------2-----|--------0-------|--------0------|
6|3--------------|-0-------------|-0--------------|-0-------------|
Lo que yo quiero corazón cobarde, es que mueras por mi

Pueden usar el arpegio que es muy similar o un leve rasgueo
G                     D
Y morirme contigo si te matas
F#                   G
¿Y matarme contigo si te mueres
E                   Bm
Porque el amor cuando no muere mata
G               A
Porque amores que matan nunca mueren

Lo demás es igual, con e excepción de esta parte

1|------0------0-|------0------0-|------0-------0-|---------1----|e
2|----0------0---|----3------3---|----1-------1---|-----1h2----1-|b
3|----2------2---|----0------0---|----0-------0---|-----1------1-|g
4|----3------3---|--0------0-----|--2-------2-----|---3------3---|d
5|--3------3-----|---------------|0-------0-------|--------------|a
6|-1------1------|3------3-------|----------------|-1------------|e
No me esperes a las doce en el juzgado, no me digas volvamos a empezar

Fin

Quiero dedicar a esta canción a Alejandra Mendoza porque sé que le
gusta Mucho esta canción (gracias por darme ray)
Este fichero es trabajo propio de su transcriptor y representa su interpretación personal de la canción. El material contenido en esta página es
para exclusivo uso privado, por lo que se prohibe su reproducción o retransmisión, así como su uso para fines comerciales.
© LaCuerda.net · Aviso Legal · Privacidad