Tablatura para Guitarra de Joan Sebastian: Secreto de amor
Conexión · Inscripción
Letras y Acordes
Pantalla Completa
Imprimir
Versión Texto
Añadir Favorito
Otras Versiones

Mostrar Diagramas
Desfile Automático
Manipular Acordes
Formato del Texto


Joan Sebastian
Secreto de amor(TAB)
calidad:
jseb0156
AUTOR: Joan Sebastían
ALBUM: Secreto de Amor
Enviado por Mauricio
La siguiente versión es a mi gusto y el de varios, la más acercada a
la original,ya que tiene agregados detalles importantes que en otras
versiones no se encuentran incorporados, espero sea de su total agrado.
Les recomiendo escuchar atentamente la canción para implementar la
tablatura acorde con el tab, Saludos¡¡

/: Slide
~: Vibrato
h: Hammer on
p: Pull off


1|----------------------------(5)--10-9-10---|
2|----------------------------(6)------------|
3|---------------------------------10-9-10---|
4|-----------------5--5/7~-------------------|
5|-----(0)--5-7-8----------------------------|
6|-------------------------------------------|


1|---5/6--6h8p6------------------------------0------1----|
2|---6/8--8-------6/8--8h9p8---6/8--8h9p8---2------3-----|
3|----------------7/9--9-------5/9--9-------------2------|
4|-----------------------------------------------0-------|
5|-------------------------------------------------------|
6|-------------------------------------------------------|



Te voy a cambiar el nombre

1--------5p3---------------0-----|
2------------3--6p3--------1-----|
3------3--------------3----3-----|
4----5---------------------2-----|
5--5-----------------------3-----|
6--------------------------------|


Para guardar el secreto

1---------1------3--------5-----|
2------3---3/5----5/7---7-------|
3----2--------------------------|
4--0----------------------------|
5-------------------------------|
6-------------------------------|


por que te amo y me amas

1-------------------------------|
2-----2-2/3---3-/-5-----5-------|
3----0----------0-----0---------|
4---2---------------------------|
5--0----------------------------|
6-------------------------------|


y a alguien debemos respeto

1-----1-1/3--3/5----5-----------|
2----3-------5/7---7------------|
3---2-------------6-------------|
4--0----------------------------|
5-------------------------------|
6-------------------------------|



   TE VOY A CAMBIAR EL NOMBRE
   PARA GUARDAR EL SECRETO
   PORQUE TE AMO Y ME AMAS
   Y A ALGUIEN DEBEMOS RESPETO

   TE VOY A CAMBIAR EL NOMBRE
   EN BASE A LO QUE HAS TRAIDO
   AHORA TE LLAMARAS GLORIA
   LO TIENES BIEN MERECIDO

   Y HEMOS DE DARNOS UN BESO
   ENCERRADOS EN LA LUNA
   SECRETO AMOR TE CONFIESO
   TE QUIERO COMO A NINGUNA

   Y PUEDO CAMBIARTE EL NOMBRE
   PERO NO CAMBIO LA HISTORIA
   TE LLAMES COMO TE LLAMES
   PARA MI TU ERES LA GLORIA

   ERES SECRETO DE AMOR (secreto)
   ERES SECRETO DE AMOR (oye)
   ERES SECRETO DE AMOR (secreto)
   ERES SECRETO DE AMOR

   DELANTE DE LA GENTE NO ME MIRES
   NO SUSPIRES NO ME LLAMES AUNQUE ME AMES
   DELANTE DE LA GENTE SOY TU AMIGO
   HOY TE DIGO QUE CASTIGO

   ERES SECRETO DE AMOR (secreto)
   ERES SECRETO DE AMOR

   TE VOY A CAMBIAR EL NOMBRE
   PARA GUARDAR EL SECRETO
   PORQUE TE AMO Y ME AMAS
   NO DEBO SER INDISCRETO


         (REQUINTO)


   DELANTE DE LA GENTE...


   ERES SECRETO DE AMOR (secreto)
   ERES SECRETO DE AMOR


   Y PUEDO CAMBIARTE EL NOMBRE...


         (REQUINTO)


   ERES SECRETO DE AMOR
   ERES SECRETO DE AMOR
   ERES SECRETO DE AMOR (secreto)
   ERES SECRETO DE AMOR
Este fichero es trabajo propio de su transcriptor y representa su interpretación personal de la canción. El material contenido en esta página es
para exclusivo uso privado, por lo que se prohibe su reproducción o retransmisión, así como su uso para fines comerciales.

© LaCuerda.net · Aviso Legal · Privacidad