Tablatura para Guitarra de Joan Sebastian: Secreto de amor
Conexión · Inscripción
Letras y Acordes
Pantalla Completa
Imprimir
Versión Texto
Añadir Favorito
Otras Versiones

Mostrar Diagramas
Desfile Automático
Manipular Acordes
Formato del Texto

Joan Sebastian
Secreto de amor(TAB)
calidad:
jseb0155
AUTOR: Joan Sebastían
ALBUM: Secreto de Amor
IMPORTANTE: la siguiente transcripción, es para todos aquellos perrines, como yo,
 que nunca hemos estudiado guitarra y no sabemos que rayos signifiquen signos y madres 
imedias que no sabemos ni que! esta canción, la saque de oido y noquiero que lo comparen 
con el otro requinto, por que son estilos diferentes ademas de que uno se entiende
 mejor que otro por la diferencia de quien si y quien no estudio. COMENZAMOS!!

Para todos los perrines requintistas!!!!
E----------------------------------------
A--0-5-7-8-------------------------------
D-----------5-5*7------------------------
G----------------------------------------
B----------------------------------------
e----------------------------------------

E----------------------------------------
A---------------------------------------0
D----------------------------------------0
G------10-9-10----------------------------2
B--6----------------6-8---5-6---3-5---2----3
e--5---10-9-10*11---5-6*8-3-5*6-1-3*5-0-----1



Te voy a cambiar el nombre
 SOL       DO7
E--3-----------
A--------------5
D---------------5
G---3------------5
B----3----6/7-----5
e-----5*0----------5


Para guardar el secreto
REm
E-------------
A-------------
D--0----------
G---2---------
B----3---3-5-6
e-----0*1--3-5

por que te amo y me amas
LA7
E------------------
A--0---------1/2/0-
D---2--------------
G----0--0----------
B------2--3--------
e------------------

y a alguien debemos respeto
REm
E-------------
A-------------
D--0----------
G---2---------
B----3---3-5-6
e-----0*1--3-5



                    SOLm    DO7
Te voy a cambiar el nombre
                       REm
en base a lo que haz traido
                      LA7
ahora te llamaras gloria
                   REm
lo tienes bien merecido


                      REm
Y hemos de darnos un beso
                  LA7
encerrados en la luna
                   SOL
secreto amor te confieso
                    DO
te quiero como a ninguna


     RE7               SOLm    DO7
Y puedo cambiarte el nombre
                       REm
pero no camnbio la historia
                   LA7
te llames como te llames
                    REm
para mi tu eres la gloria


                  LA7
Eres secreto de amor-secreto
                 REm
Eres secreto de amor-oye
                  LA7
Eres secreto de amor-secreto
                  REm
Eres secreto de amor



De lante de la gente 
        LA7
no me mires

no suspires
         REm
no me llames
           
aunque me ames


         
delante de la gente
         LA7
soy su amigo 

hoy te digo
        REm 
que castigo

 
                 LA7
Eres secreto de amor-secreto
                 REm
eres secreto de amor


                      SOLm    DO7
Te voy a cambiar el nombre
                  REm
para guardar el secreto
                     LA7
por que te amo y me amas 
                  REm
no debo ser indiscreto

E-----------------------
A-----------------------
D-----------------9-10-9
G----9------------8--9-8
B--8-8-7-8-7-5-7--------
e--7---5-7-5-3-5--------

E----------------
A----------------
D----------------
G---7------------
B-6-6-5-6-5-3-5--
e-5---3-5-3-1-3--



De lante de la gente 
        LA7
no me mires

no suspires
        REm
no me llames

aunque me ames



delante de la gente
        LA7
soy su amigo 

hoy te digo 
       REm
que castigo

que dolor que dolor!!


                 LA7
Eres secreto de amor-secreto 
                  REm,
eres secreto de amor


Y puedo 
E-------
A---3---
D----4--
G-----2-
B------4
e-------

Cambiarte el nombre
 SOL       DO7
E--3-----------
A--------------5
D---------------5
G---3------------5
B----3------------5
e-----3-6-5-3------5

pero no cambio la historia
E-------------------------
A-8-----------------------
D---5-6-7-----------------
G---------5---------------
B-----------5-7-7/9----9--
e---------------------7-7-

Te llames como te llames
   MI°          LA
E------------------
A--7--------------
D---8------------2
G----7-----------2
B-----8--8-6-5-3-2
e--------6-5-3-1-0

Para mi tu eres la Gloria
E------
A--------
D--6b(bueno, aqui se alsa la cuerda hacia arriba hasta llegar al tono de La)
G----------
B------------
e--------------

                 Hay este secreto!!
E-----------------------
A-----------------------
D-----------------9-10-9
G----9------------8--9-8
B--8-8-7-8-7-5-7--------
e--7---5-7-5-3-5--------
              Hay que me ha vuelto tan discreto
E----------------
A----------------
D----------------
G---7------------
B-6-6-5-6-5-3-5--
e-5---3-5-3-1-3--

REm              LA7
Eres secreto de amor-ahhyyyy
                 REm
eres secreto de amor
REm              LA7
eres secreto de amor-secreto
                 REm
eres secreto de amor




Notas:  A) escuchen LA canción, para que vean donde cambia y las partes que se 
           repiten dos veces (requintos con trompeta)
        b) los '*' quiere decir que terminado de pisar un traste, agreguen el dedo meñique 
           y lo hagan rapido, entendieron perrines?!!!


bueno, para los perrines que no le entienden, pues la cagan y  a los que si le entiende,
de todos modos la cagan mis perrines
Envía el tono de "Secreto de amor" a tu celular/móvil
Este fichero es trabajo propio de su transcriptor y representa su interpretación personal de la canción. El material contenido en esta página es
para exclusivo uso privado, por lo que se prohibe su reproducción o retransmisión, así como su uso para fines comerciales.
© LaCuerda.net · Aviso Legal · Privacidad