Tablatura para Guitarra de Joan Sebastian: No la voy a engañar
Conexión · Inscripción
Letras y Acordes
Pantalla Completa
Imprimir
Versión Texto
Añadir Favorito
Otras Versiones

Mostrar Diagramas
Desfile Automático
Manipular Acordes
Formato del Texto

Joan Sebastian
No la voy a engañar(TAB)
calidad:
jseb2122
AUTOR: Joan Sebastian
ALBUM: Pegadito al Corazón (2009)
Enviado por ricardo
Bueno esta es la parte del inicio:
empieza con el acorde de Gm rasgando la guitarra
cada una de las cuerdas desde la sexta cuerda,
sin tocar la primera, se toca el requinto y al terminar
se vuelve a tocar el acorde de Gm igual, como se muestra
a continuación:
   Gm                         Gm
E  x------10-9-5-6-5-5/3-3-3---x-----
B  3---------------------------3----
G  3---7--10-------------------3----
D  5---------------------------5----
A  5---------------------------5----
E  3---------------------------3----

Gm
SE QUE DEBIERA CONFESARSELO
                          Cm
PERO ME ANGUSTIO SOLO DE PENSAR
                   F
Y HE DECIDIDO OCULTÁRSELO
                 A#
POR NO HACERLA LLORAR

D#                            D7
NO, YO NO SOY FIEL COMO QUISIERA,
Gm
ME VENCEN LOS INSTINTOS DE ANIMAL,
    D#                       A#
ME GANA LA HERMOSURA PLACENTERA
       D7
Y AUNQUE SE SIENTE BIEN SE SIENTE MAL,

                           Gm
SÉ... SÉ QUE DEBIERA CONFESARSELO,
                       Cm
MIRÉ SUS OJOS Y ME ARREPENTÍ,
                    F
LAVÉ MIS LABIOS CON AGUA Y JABÓN
                A#
Y MIL BESOS LE DÍ,

D#                            D7
NO, YO NO SOY FIEL COMO QUISIERA,
    Gm
ME GANAN LOS INSTINTOS DE ANIMAL,
    D#                      A#
ME VENCE LA HERMOSURA PASAJERA
       D7
Y AUNQUE SE SIENTE BIEN SE SIENTE MAL
                 Gm
MI CORAZÓN QUE LA AMA....

---REQUINTO--


                  F                      A#              D7
E ---------------------|-5--6--8---6--5-------------------
B ---------------------|-6--8--10--8--6-6/8-6-4-3---------
G ---------------------|----------------------------------
D -----0--5-5-7-5/3-3-7|----------------------------------
A ---2-----------------|----------------------------------
E -3-------------------|----------------------------------

DESPUÉS DE ESTO APARECE EL TECLADO CON LAS NOTAS:
D, A, A#, C, A#, G

ACONTINUACIÓN SIGUE LA SEGUNDA PARTE DEL REQUINTO:

                    F                       D#             D7
E ----------------------------------------------------------
B ----------------------------------------------------------
G ---------10/12-12-14-12/10-10-12-10-12-10-8-8-10-12-10-8-7
D ----9-12--------------------------------------------------
A -10-------------------------------------------------------
E ----------------------------------------------------------

E ---------------|----10-9-5-6-5-5/3-3-3-|
B ---------------|-----------------------|
G - (7'8'7) -5/7-|-7--10-----------------|
D ---------------|-----------------------|
A ---------------|-----------------------|
E ---------------|-----------------------|

Gm
SÉ QUE DEBIERA CONFESÁRSELO
                        Cm
Y PROMETERLE QUE VOY A CAMBIAR,
                   F
PERO SI ELLA ME CONOCE BIEN,
               A#
NO LA VOY A ENGAÑAR,

D#                            D7
NO, YO NO SOY FIEL COMO QUISIERA,
    Gm
ME VENCEN LOS INSTINTOS DE ANIMAL,
                         A#
ME GANA LA HERMOSURA PASAJERA
       D7
Y AUNQUE SE SIENTE BIEN SE SIENTE MAL
                  Gm
MI CORAZÓN QUE LA AMA



                           F                  D#         D7
                          NOOO!!!          NOOOO!!!!   NOOOO!!!
E ------------------------------------------------------------
B ------------------------------------------------------------
G ---------10/12-12-14-12/10-10-12-10-12-10-8-8-10-12-10-8-7--
D ----9-12----------------------------------------------------
A -10---------------------------------------------------------
E ------------------------------------------------------------

E ---------------|
B ---------------|
G - (7'8'7) -5/7-|
D ---------------|
A ---------------|
E ---------------|

D#                            D7
NO, YO NO SOY FIEL COMO QUISIERA,
Gm
ME VENCEN LOS INSTINTOS DE ANIMAL,
    D#                       A#
ME GANA LA HERMOSURA PLACENTERA
       D7
Y AUNQUE SE SIENTE BIEN SE SIENTE MAL,

MI CORAZÓN, MI CORAZÓN QUE LA AMA

E  ------10-9-5-6-5-5/3-3-3----3----
B  ----------------------------3----
G  ---7--10--------------------3----
D  ----------------------------5----
A  ----------------------------5----
E  ----------------------------3----


BUENO ACONTINUACIÓN LA PARTE DE LOS APUNTES Y LAS EXPLICACIONES:
Gm= SOL menor
Cm= DO menor
D#= RE sostenido
D7= RE séptimo
A#= LA sostenido
F = FA

En el requinto en las partes que se encuentran las diagonales
significa que son ligados, por ejemplo:
E  ------10-9-5-6-5-5/3-3-3--------
Ahí, el tono comienza en el quinto traste y sólo se arrastra hacia
el tercer traste.

En el caso donde aparece el paréntesis con 3 trastes ejemplo:

G --- (7'8'7) ------
Significa que se comienza tocando el primer traste que aparece,
luego el traste que se encuentra en medio solo se jala hacia
abajo y así se vuelve al traste inicial.

ESPERO QUE LES SIRVA ESTA TABLATURA QUE ES LO MÁS PARECIDO
A COMO SE ESCUCHA EN EL DISCO, ESPERO LE ENTIENDAN
Y QUE LA DISFRUTEN YA CUANDO LA SAQUEN.
SALUDOS DESDE PARRAL CHIHUAHUA. CUALQUIER DUDA O COMENTARIO
ME PUEDEN ESCRIBIR A MI MSN ES reoz_19@hotmail.com
Envía el tono de "No la voy a engañar" a tu celular/móvil
Este fichero es trabajo propio de su transcriptor y representa su interpretación personal de la canción. El material contenido en esta página es
para exclusivo uso privado, por lo que se prohibe su reproducción o retransmisión, así como su uso para fines comerciales.
© LaCuerda.net · Aviso Legal · Privacidad