Letra y Acordes de Jesús Adrián Romero: Tu Bandera
Conexión · Inscripción
Letras y Acordes
Pantalla Completa
Imprimir
Versión Texto
Añadir Favorito
Otras Versiones

Mostrar Diagramas
Desfile Automático
Manipular Acordes
Formato del Texto


Jesús Adrián Romero
Tu Bandera
calidad:
jaro1644
AUTOR: Jesús Adrian Romero
ALBUM: El Brillo de mis ojos (2010)
Enviado por joel
Esta es la cancion Tu Bandera
de Jesus Adrian Romero, y en gral. los punteos son casi los mismos
que se utilizan durante los versos
las notas se cuentan desde el capo
igual los acordes

Capo 4to Traste

Intro:
D A Bm Bm
e:-----------2-----------0------------2-----------2--
B:-------3-----3------2----2------3-----3-----3-----3
G:-----2---2--------2---2-------4---4-------4---4----
D:---0-----------------------------------------------
A:----------------0-----------2-----------2----------
E:---------------------------------------------------
e:--------3------------2------------0----0--
B:----3-----3------2-----2------2-----2--2--
G:--4---4--------2---2--------2---2------2--
D:---------------------------------------2--
A:--------------------------0---------------
E:3------------2----------------------------
D A Bm
Como en un país extraño me encontre sin ti No entendia el idioma ni las cosas que viví
D A Bm
Y corrí a buscar sin ver tu rostro entre la gente y aun sin conocerte convencido estaba de encontrarte a ti de encontrarte a ti [CORO]
G A D
Y en medio de mi confusión se alzaba tu bandera
G A D Bm
Señal volaba como el sol diciendome que fuera y a ti te siguiera
G A D
y asi me refugie en la cruz y en tu bendito amor
D A Bm
Nunca imagine la vida que ahora vivo en ti Ni la gracia que me diste cuando a ti volvi
D A Bm
Mas ahora se que en ti yo tengo lo que anhelo tengo vida plena, tengo paz eterna si te tengo a ti Si te tengo a ti [CORO]
G A D
Y en medio de mi confusión se alzaba tu bandera
G A D Bm
Señal volaba como el sol diciendome que fuera y a ti te siguiera
G A D
y asi me refugie en la cruz y en tu bendito amor Bendiciones :)
Este fichero es trabajo propio de su transcriptor y representa su interpretación personal de la canción. El material contenido en esta página es
para exclusivo uso privado, por lo que se prohibe su reproducción o retransmisión, así como su uso para fines comerciales.

© LaCuerda.net · Aviso Legal · Privacidad